Song name
# A B C D E F G H I J K L M N O P Q R S T U V W X Y Z

Misc Your Songs - Shivering tab

Tuning : CGCGbBbE

This is a tab that I made. It is and awesome tune and i wanted to make 
it available to the public. Thank you ~ Airman

e---------------------------------------------------------------------
Bb--------------------------------------------------------------------
Gb----------12------------12------------13~-12h12h13h12/10h12h10/8h10-
c-0-12-14-----0-0-12-14-----0-0-12-14---------------------------------
g---------------------------------------------------------------------
C---------------------------------------------------------------------

e---------------------------------------------------------------------
Bb--------------------------------------------------------------------
Gb-----------------12------------12-------13~-12-12h13\15-15-15-13-12-
c-10/12---0-12-14-----0-0-12-14-0-0-12-14-----------------------------
g---------------------------------------------------------------------
C---------------------------------------------------------------------

e---------------------------------------------------------------------
Bb--------------------------------------------------------------------
Gb-12-13-12-10-10-12-10-8-10-8----------------------------------------
c------------------------------10/12-12-------------------------------
g---------------------------------------------------------------------
C---------------------------------------------------------------------

e---------------------------------------------------------------------
Bb--------------------------------------------------------------------
Gb--------------------------------------------------------------------
c--0-12-0-10-0-8-0-7-0-7-8-7-5-7-5-3----------------------------------
g-------------------------------------5-------------------------------
C---------------------------------------------------------------------

e---------------------------------------------------------------------
Bb--------------------------------------------------------------------
Gb--------------------------------------------------------------------
c--0-12-0-10-0-8-0-7-0-7-8-7-5-7-5-3----------------------------------
g-------------------------------------5-------------------------------
C---------------------------------------------------------------------

e---------------------------------------------------------------------
Bb--------------------------------------------------------------------
Gb--------------------------------------------------------------------
c--------0-3~---------0-5~-------0-3-5-5\6/5-3------------------------
g--0-3-5------0-3-5--------0-3-5----------------5---------------------
C---------------------------------------------------------------------

e---------------------------------------------------------------------
Bb--------------------------------------------------------------------
GB--------------------------------------------------------------------
c--------0-3~---------0-5~-------0-3-5\6/5-3--------------------------
g--0-3-5------0-3-5--------0-3-5----------------5---------------------
C---------------------------------------------------------------------

            That is all of the song I will post for now. Enjoy!
Tap to rate this tab
# A B C D E F G H I J K L M N O P Q R S T U V W X Y Z