Song name
# A B C D E F G H I J K L M N O P Q R S T U V W X Y Z

Misc Your Songs - Holmen John - Daft Flux tab

Daft Flux

    Intro
E-----------------------------
B-----------------------------
G-------------7--x--5---------     .=Palm Mute
D-2--x--5--x--7--x--5---------     Play chords 8 times each
A-2--x--5--x--5--x--3---------     Play mutes 2 times each
E-0--x--3--x------------------
  .  .  .  .  .  .  .

    Riff A
E-----------------------------
B-----------------------------
G-------------7--x--5---------     Play chords 8 times each
D-2--x--5--x--7--x--5---------     Play mutes 2 times each
A-2--x--5--x--5--x--3---------
E-0--x--3--x------------------

   Riff B Pt1
E-----------------------------
B-----------------------------
G-----------------------------        
D-----------------------------
A------------------------5-4-3
E-0--0-0-0-0-0-0-0-3-4-5------

   Riff B Pt2
E-----------------------------
B-----------------------------
G-----------------------------
D-----------------------------
A------------------------5-6-7
E-0--0-0-0-0-0-0-0-3-4-5------

   Solo
E-4-5-7-5-0--4-5-4-0-4--5-7-8-7-5------------------
B---------------------------------8-7-5------------
G----------------------------------------7-5-------
D--------------------------------------------5-7/--
A--------------------------------------------------
E--------------------------------------------------

   Order
Intro 2x
Riff A 4x
Riff B Pt 1 3x
Riff B Pt 2 1x
Riff A 4x
Solo 1x

Just messing around one day and started screwing around and came up 
with this song. It sounds sweet on my digitech effects pedal when you 
play the intro with like a deep effect with chorus and a little bit of 
distortion then when you start playing the riffs switch to a more 
"heavy metal" effect with heavy distortion. matix86af@hotmail.com
Tap to rate this tab
# A B C D E F G H I J K L M N O P Q R S T U V W X Y Z