Guitaretab - guitar tabs
Song name
# A B C D E F G H I J K L M N O P Q R S T U V W X Y Z

Misc Your Songs - Warford Jordan - Sands Of Time tab

Artist : Jordan Warford
Song   : Sands Of Time

This is a tribute to a close friend who passed away November 22/02 enjoy

  Lead for rhythm
E-------------------------------------------------------------------
B-------------------------------------------------------------------
G------------8------------8-------------8-------------8-------------
D--------9-------9-----9------9-----9------9------9------9----------
A----7--------------7-----------7-------------7---------------------
E-------------------------------------------------------------------

E-------------------------------------------------------------------
B-------------------------------------------------------------------
G-----------6--------------6-------------6-------------6------------
D-------7------7-------7------7------7------7------7------7---------
A---5--------------5-------------5-------------5--------------------
E-------------------------------------------------------------------
[ Tab from: http://www.guitaretab.com/m/misc-your-songs/31708.html ]
E-------------------------------------------------------------------
B-------------------------------------------------------------------
G----------4-------------4-------------4----------------------------
D------5------5------5------5------5------5-------------------------
A--3--------------3------------3------------------------------------
E-------------------------------------------------------------------
Strumming pattern below
E--------------------------------------------------------------------
B--------------------------------------------------------------------
G---8-8-8-8-8-6-6-6-6-6-8-6-4----------------------------------------
D---9-9-9-9-9-7-7-7-7-7-9-7-5----------------------------------------
A---7-7-7-7-7-5-5-5-5-5-7-5-3----------------------------------------
E--------------------------------------------------------------------


  strum V^VVV REPEAT

you can play these chords up and down the fret board, have fun with it
and if you have any questions or comments email me at jordanwarford@hotmail.com
Related for Warford Jordan - Sands Of Time tab
Advertisement will be closed in 10 seconds