Song name
# A B C D E F G H I J K L M N O P Q R S T U V W X Y Z

Misc Your Songs - Matt - Can You Help Me tab

this is my first tabbed song but it's correct cuz I made the song my
self- MAtt- I had to get my song on the net

standard tuning
Intro (acoustic)
|-------------------------------------------------
|-------------------------------------------------
|--12~----9~----7~--------------------------------
|-------------------------------------------------
|-------------------------------------------------
|-------------------------------------------------

1st vs(acoustic)(also interlude)end note before chorus is also electric guitar
|--------------------------------|-----------------also acoustic plays end note
|--------------------------------|-----------------8va(octave higher)
|12--9---7--(repeat a bit)-------|-----------------
|12--9---7-----------------------|--5--------------
|10--7---5-----------------------|--5--------------
|--------------------------------|--3--------------

chorus (electric- distorted)
|--------------------------
|--------------------------
|-------("up...up...up")---
|5-7-3---5-----------------
|5-7-3---5-----------------
|3-5-1---3-----------------

interlude

vs 2(like first only w/ electric and distortion)

solo ()=triplets  *acoutic playing vs chords in background*
|----------------------------------------------
|----------------------------------------------
|----------------------------------------------
|----------------------------------------------
|-10-10-10-10-(10-12-10)-7-(7-9-7)-5-5-(5-7-5)- - this times 2
|----------------------------------------------

|--------------------------------------------------
|--------------------------------------------------
|--------------------------------------------------
|--------------------------------------------------
|-10-10-10-10-12bb(bend twice quickly)-7-7-5-5-7bb- - this times 2
|--------------------------------------------------

|---------------------------------------------------
|---------------------------------------------------
|---------------------------------------------------
|---------------------------------------------------
|-10-10-10-10-10bb-7-7bb-5b(hold this bendy longer)-
|---------------------------------------------------

repeat chorus twice, and hold end note
Tap to rate this tab
# A B C D E F G H I J K L M N O P Q R S T U V W X Y Z