Song name
# A B C D E F G H I J K L M N O P Q R S T U V W X Y Z

Misc Your Songs - Nemshick Mike - The Way To The Top tab

mike nemshick song 

v     means  verbroto
b     means  bend
b^r   means bend and release

intro
E----------------------------------------------------------------
B----------------------------------------------------------------
G----------------------------------------------------------------
D-------3-----5-----------------3-----5-----------b--------------
A---5-------------3---------5-------------3-------5--------------
E----------------------------------------------------------------


E----------------------------------------------------------------
B----------------------------------------------------------------
G----------------------3-----------------------------------------
D------------3---5---------5-----3---5---------------------------
A---3---5--------------------------------------------------------
E----------------------------------------------------------------

verse 
E----------------------------------------------------------------
B----------------------------------------------------------------
G----------------------------------------------------------------2x
D----------3------3-----v----------7-----------------------------
A----/5--------4--------3-----/9-------9--8--7-------------------
E----------------------------------------------------------------

solo

E---------------------b^r----------------------------------------
B----------17--------19---------------------------------b^r------
G-----19----------------------------19----17------------17-------
D-------------------------------------------------19-------------
A----------------------------------------------------------------
E----------------------------------------------------------------

E----------------------------------------------------------------
B---------------b------------------------------------------------
G------17------15---------v-------8------------------------------
D------------------------17/9----------8---------9---------------
A----------------------------------------------------------------
E----------------------------------------------------------------
Tap to rate this tab
 
# A B C D E F G H I J K L M N O P Q R S T U V W X Y Z