Song name
# A B C D E F G H I J K L M N O P Q R S T U V W X Y Z

Misc Your Songs - Nathan Lanclos - Natbawn Got The Blues tab

Artist : nathan lanclos
Song   : natbawn got the blues

this is a song i wrote i dont have a site 

clean

--0-0----------------------------------------------------------------------
--5-3-0--------------------------------------------------------------------
--------2-0----------------------------------2-2-4-2-5-2-4-2--2-4-2-5-2-4--
------------2-2-2-4-2-5-2-4-2--2-4-2-5-2-4-2-0-0-0-0-0-0-0-0--0-0-0-0-0-0--
--------------0-0-0-0-0-0-0-0--0-0-0-0-0-0-0-------------------------------
---------------------------------------------------------------------------

-------------------------------------------------------------------------------
-5-3-0----5-3-0------------------------------------2-2-4-2-5-2-4-2--2-4-2-5-2-4
-------2--------2-0--------------------------------0-0-0-0-0-0-0-0--0-0-0-0-0-0
--------------------2-2-4-2-5-2-4-2--2-4-2-5-2-4-2-----------------------------
----------------------0-0-0-0-0-0-0--0-0-0-0-0-0-0-----------------------------
-------------------------------------------------------------------------------

                                     ^^^^
                          repeat that part till the end

Hope you enjoy my blues song and if u got any comments or questions
email me at Me_LoCo237@yahoo.com

ROCK ON CHICAGO, ROCK ON LONDON...subway, eat fresh
Tap to rate this tab
# A B C D E F G H I J K L M N O P Q R S T U V W X Y Z