Song name
# A B C D E F G H I J K L M N O P Q R S T U V W X Y Z

Misc Your Songs - Kum By Ya tab

e|---------------------------------------------------------------------------|
B|---------------------------------------------------------------------------|
G|--------0--0--0--2--2--0--------0--0--0-----------------0--0--0--2--2--0---|
D|-----2-----------------------2-----------3--2--0-----2---------------------|
A|--3-----------------------3-----------------------3------------------------|
E|---------------------------------------------------------------------------|

e|---------------------------------------------------------------------------|
B|---------------------------------------------------------------------------|
G|---------------------------------------------------------------------------|
D|--3--2-----0--0------------------------------------------------------------|
A|--------3--------3---------------------------------------------------------|
E|---------------------------------------------------------------------------|

This is my second tab and i hope it's right.  I love playing guitar now.
Thanks for all of you other tab writers.
Tap to rate this tab
# A B C D E F G H I J K L M N O P Q R S T U V W X Y Z