Song name
# A B C D E F G H I J K L M N O P Q R S T U V W X Y Z

Misc Your Songs - Cool Little Ditty tab

this is my first tab and it is something i made up.
so none of you can tell me it is wrong.  hope you all enjoy it.

e------------2-----2------2-----2------------0-----0-----0-----0--------
b--------3-----3------3-----3-----3------3-----3-----3-----3-----3------
g----------2-----2------2-----2-----2------2-----2-----2-----2-----2----
d------0-------------------------------3--------------------------------
a-----------------------------------------------------------------------
E-----------------------------------------------------------------------

e-------0-----0-----0-----0-----------0-----0-----0-----0---------------
b---3-----3-----3-----3-----3-----3-----3-----3-----3-----3-------------
g-----2-----2-----2-----2-----2-----2-----2-----2-----2-----2-----------
d-----------------------------------------------------------------------
a-3---------------------------------------------------------------------
E-------------------------------3---------------------------------------

e----x----------x---------x------------x--------x--------x---------x----
b----3----------3---------3------------3--------3--------3---------3----
g----2----12x---2---12x---2---12x------2---12x--2---12x--2--12x----2--1x
d----0----------0---------3------------0--------0--------0---------0----
a----x----------3---------0------------x--------x--------x---------x----
E----3---------------------------------3--------2--------0-------2h3----

have fun.
if you have any improvments on this, that i would like to see them
e-mail me at ghetto_geppetto@hotmail.com
p.s.  i'll kill you if you try to steal this(i wouldn't know any way)
p.p.s. Uncle Kracker such balls
Tap to rate this tab
 
# A B C D E F G H I J K L M N O P Q R S T U V W X Y Z