Song name
# A B C D E F G H I J K L M N O P Q R S T U V W X Y Z

Misc Your Songs - The Crazy Faggot Song tab

                       ***The Giant Sixth Graders***
                          (The Crazy Faggot Song)


-------------|
/=slide      |
^=harmonic   |
h=hameron    |
p=pull off   |
b=bend       |
x=mute       |
-------------|

  D       F#sus4   G#6       E7   E7  D7   D7
----------0---0--------------9--x--9--5--x--5------------------------------
----------0---0--------------8--x--8--7--x--7------------------------------
----------11--11-------------9--x--9--5--x--5------------------------------
------------------/-3-----------------7--x--7------------------------------
------13------------------------------5--x--5------------------------------
--10-------------------4--3------------------------------------------------


**Additional Lyrics**
---------------------

This is the retarded faggot song (repeat)
This is the retarded faggot song (repeat)
This is the retarded faggot song (repeat)
This is the retarded faggot song (repeat)
This is the retarded faggot song (repeat)

(***Sing these lyrics throughout whole song***)

                              
                            2003 Fagghetto Music
Tap to rate this tab
 
# A B C D E F G H I J K L M N O P Q R S T U V W X Y Z