Song name
# A B C D E F G H I J K L M N O P Q R S T U V W X Y Z

Misc Your Songs - My Fist Your Head tab

                         ***The Giant Sixth Graders***
                              (My Fist Your Head)

                           This Song Is Dedicated To:
                                *Danial Hansen* 

W/Distortion
-----------------------------------------------------|--------------------------
-----------3-----------3-----------3-/-4-/-3-/-2--2--|--------------------------
-----------3-----------3-----------3-/-4-/-3-/-2--2--|--------------------------
-----------5-----------5-----------5-/-6-/-5-/-4--4--|--------------------------
-----------5-----------5-----------5-/-6-/-5-/-4--4--|--------------------------
--0--0--0--3--0--0--0--3--0--0--0--3-/-4-/-3-/-2--2--|--------------------------


-----------------------------------------------------|--------------------------
-----------3-----------3-----------3-/-4-/-3-/-2--2--|--------------------------
-----------3-----------3-----------3-/-4-/-3-/-2--2--|--------------------------
-----------5-----------5-----------5-/-6-/-5-/-4--4--|--------------------------
-----------5-----------5-----------5-/-6-/-5-/-4--4--|--------------------------
--0--0--0--3--0--0--0--3--0--0--0--3-/-4-/-3-/-2--2--|--------------------------


-----------------------------------------------------|--------------------------
-----------5-----------5-----------5-/-6-/-5-/-4--4--|--------------------------
-----------5-----------5-----------5-/-6-/-5-/-4--4--|--------------------------
-----------7-----------7-----------7-/-8-/-7-/-6--6--|--------------------------
-----------7-----------7-----------7-/-8-/-7-/-6--6--|--------------------------
--0--0--0--5--0--0--0--5--0--0--0--5-/-6-/-5-/-4--4--|--------------------------


--------------|-----|-----|-----|--------------------------
-----------3--|--3--|--3--|--3--|--3-/---------------------
-----------3--|--3--|--3--|--3--|--3-/---------------------
-----------5--|--5--|--5--|--5--|--5-/---------------------
-----------5--|--5--|--5--|--5--|--5-/---------------------
--0--0--0--3--|--3--|--3--|--3--|--3-/---------------------
Tap to rate this tab
# A B C D E F G H I J K L M N O P Q R S T U V W X Y Z