Song name
# A B C D E F G H I J K L M N O P Q R S T U V W X Y Z

Misc Your Songs - Poop tab

                                "Poop"

                            Dedicated to
                             Merk Keller
    Gtr. 1
  1-------------------------------19-19--
  2--------------------------------------
  3-------------------------------16-16--
  4--------------------------------------
  5--2-2-2-2---2-2-2-2---2-2-2-2---------
  6--0-0-0-0---0-0-0-0---0-0-0-0---------
    Gtr.2
  1-------------------------------------
  2-------------------------------------
  3--9-9-9-9---9-9-9-9---9-9-9-9--------
  4--X-X-X-X---X-X-X-X---X-X-X-X--------
  5--7-7-7-7---7-7-7-7---7-7-7-7--------
  6--------------------------------0-0--

    This tab is dumb.
    See you later.
Tap to rate this tab
# A B C D E F G H I J K L M N O P Q R S T U V W X Y Z