Song name
# A B C D E F G H I J K L M N O P Q R S T U V W X Y Z

Misc Your Songs - Nemeth Mike - Bumble Bee tab

This tab ws submitted by mike nemeth i make this song up and i like it.
I live in the U.S. and i am a citizen


E ---------2h3p-------------2/1------------1h2----2----------------------------
B ------3-------3-----3-----------------0---------3----------------------------
G ----2------------3------------------0-----------2----------------------------
D --0-------------------------------0-------------0----------------------------
A -----------------------------------------------------------------------------
E -----------------------------------------------------------------------------

 chords D C A Am A

Now hit the distortion

E --------------------------------------------------------------------------
B --------------------------------------------------------------------------
G --9-9-9-9-------------7-7-7-7--------------------------------------------- 8x
D --9-9-9-9---7-7-7-7---7-7-7-7---5-5-5-5-----------------------------------
A --7-7-7-7---7-7-7-7---5-5-5-5---5-5-5-5-----------------------------------
E ------------5-5-5-5-------------3-3-3-3-----------------------------------

Play this really fast

E -0-7-0-7-0-7-0-7-0-5-0-5-0-5-0-5-0-3-0-3-0-3-0-3-2-----2p-----------------
B ---------------------------------------------------3-2--------------------
G -------------------------------------------------------------------------- 2x
D --------------------------------------------------------------------------
A --------------------------------------------------------------------------
E --------------------------------------------------------------------------
Tap to rate this tab
# A B C D E F G H I J K L M N O P Q R S T U V W X Y Z