Song name
# A B C D E F G H I J K L M N O P Q R S T U V W X Y Z

Misc Your Songs - Rodey Chris - Morgue tab

Self Created song 
Title: Morgue
Tabbed by: Chris Rodey AKA The Rode Dawg

I don't know if you will put this on, but this is a song I'm working on with my
band.  We hope on making a record deal some day.  I just sat down in my basement
one day and thought this up and I hope you guys in the music world like it.        

h=hammer on
p=pull off

Tuning- E A D F# B e

INTRO (only guitar 1 plays this)

--------|-------|-------|-------|-----|-------|-------|-------|--------|-----|
------0-|-----0-|-----0-|-----0-|-----|-------|-------|-------|--------|-----|
----1---|---1---|---1---|---1---|-----|---0-3-|---0-3-|---0-3-|---0-3--|-----|
--2-----|-2-----|-2-----|-2-----|-2-1-|-0-----|-0-----|-0-----|-0------|-0-1-|
--------|-------|-------|-------|-----|-------|-------|-------|--------|-----|
--------|-------|-------|-------|-----|-------|-------|-------|--------|-----|

--------|-------|-------|-------|-2--0-0-|-----|-------|-------------|---------|
------0-|-----0-|-----0-|-----0-|--------|-3-3-|-0h2h3-|-0h2h3-0h2h3-|-2-2-----|
----1---|---1---|---1---|---1---|--------|-----|-------|-------------|-----3-3-|
--2-----|-2-----|-2-----|-2-----|--------|-----|-------|-------------|---------|
--------|-------|-------|-------|--------|-----|-------|-------------|---------|
--------|-------|-------|-------|--------|-----|-------|-------------|---------|

------|-------|-REPEAT-|-------2-|-3-3-0-0-|---3-|---3---3-|-5-5-2-7-|-5-7-8-|
------|-------|ALL-BUT-|-----2---|---------|-0---|-0---0---|---------|-------|
--0-3-|-------|////////|-0-3-----|---------|-----|---------|---------|-------|
------|-0-1-2-|\\\\\\\\|---------|---------|-----|---------|---------|-------|
------|-------|--LAST--|---------|---------|-----|---------|---------|-------|
------|-------|--LINE--|---------|---------|-----|---------|---------|-------|

--8p7p5-8p7p5-|-8p7p5-8p7p5-|-10p8p7-10p8p7-|-10p8p7-10p8p7-|-7p6p4-7p6p4-|
--------------|-------------|---------------|---------------|-------------|
--------------|-------------|---------------|---------------|-------------|
--------------|-------------|---------------|---------------|-------------|
--------------|-------------|---------------|---------------|-------------|
--------------|-------------|---------------|---------------|-------------|

--7p6p4-7p6p4-|-5p4p2-5p4p2-|-5p4p2-5p4p2(let last note ring)-|PAUSE
--------------|-------------|---------------------------------|PAUSE
--------------|-------------|---------------------------------|PAUSE
--------------|-------------|---------------------------------|PAUSE
--------------|-------------|---------------------------------|PAUSE
--------------|-------------|---------------------------------|PAUSE

----------------|-----------------|-----------------|-----------------|REPEAT---
--0-0-3-0-5-0-7-|-0-0-0-3-0-5-0-8-|-0-0-0-3-0-5-0-7-|-0-0-0-3-0-5-0-12|--X1-----
----------------|-----------------|-----------------|-----------------|LET-LAST-
----------------|-----------------|-----------------|-----------------|NOTE-RING
----------------|-----------------|-----------------|-----------------|--SECOND-
----------------|-----------------|-----------------|-----------------|---TIME--

VERSES

Guitar 1
--7-7-7--7-7-7-|-5-5-5--0-0-0-|------|
--9-9-9--5-5-5-|-7-7-7--7-7-7-|REPEAT|
---------------|--------------|--X4--|
---------------|--------------|------|
---------------|--------------|------|
---------------|--------------|------|

Guitar 2
--7-7-7--10-10-10-|-5-5-5--7-7-7-|------|
--9-9-9--12-12-12-|-7-7-7--9-9-9-|REPEAT|
------------------|--------------|--X4--|
------------------|--------------|------|
------------------|--------------|------|
------------------|--------------|------|

CHORUS

Guitar 1
--7-7-7-7-7-7-7-7-7-7-|-5-5--3-3--7-|REPEAT|
--9-9-9-9-9-9-9-9-9-9-|-7-7--5-5--9-|--X4--|
----------------------|-------------|------|
----------------------|-------------|------|
----------------------|-------------|------|
----------------------|-------------|------|

Guitar 2
--7-7-7-7-7-7-7-7-7-7-|-5-5--10-10--7-|REPEAT|
--9-9-9-9-9-9-9-9-9-9-|-7-7--12-12--9-|--X4--|
----------------------|---------------|------|
----------------------|---------------|------|
----------------------|---------------|------|
----------------------|---------------|------|


AND THATS ALL OF IT! HOPE YOU GUYS ENJOY IT!
IF YOU HAVE ANY COMMENTS OR SUGGESTIONS, JUST PUT THEM IN THE CORRECTIONS!

SPECIAL THANKS TO KEVIN KORTE AND NICK WIER FOR 
HELPING TO MAKE THE BAND WHAT IT IS!!!

P.S.-METALLICA ROCKS!!!
Tap to rate this tab
# A B C D E F G H I J K L M N O P Q R S T U V W X Y Z