Guitaretab - guitar tabs
Song name
# A B C D E F G H I J K L M N O P Q R S T U V W X Y Z

Misc Your Songs - Wiggins - Old Churches And Dead Priests tab

 Misc Your Songs
 Standard Tuning
 Riff 1 Intro: Played four times.
 -------------------------------------------------------------------------------
 -------------------------------------------------------------------------------
 -------------------------------------------------------------------------------
 -------------------------------------------------------------------------------
 --5-5-5-6--4-4-4-4-------------------------------------------------------------
 -------------------------------------------------------------------------------

 Riff 2 Guitar one, four times then four more times with second guitar.
 -------------------------------------------------------------------------------
 -------------------------------------------------------------------------------
 -------------------------------------------------------------------------------
 ----------5/7--3-3-3-3---------------------------------------------------------
 --5-5-5------------------------------------------------------------------------
 -------------------------------------------------------------------------------

 Riff 2 Guitar 2 Played four times, after guitar one plays 4 four times alone.
 -------------------------------------------------------------------------------
 -------------------------------------------------------------------------------
 -------------------------------------------------------------------------------
 ----------7/9--5-5-5-5---------------------------------------------------------
 --7-7-7------------------------------------------------------------------------
 ------------------------------------------------------------------------------- 

  Riff 3 Guitars 1 and 2 play at the same time four times.
   -----------------------------------------------------------------------------
   -----------------------------------------------------------------------------
   -----------------------------------------------------------------------------
   --5-5-5-6-4-4-4-4------------------------------------------------------------
   --5-5-5-6-4-4-4-4------------------------------------------------------------
   --5-5-5-6-4-4-4-4------------------------------------------------------------
P.M.................
[ Tab from: http://www.guitaretab.com/m/misc-your-songs/35396.html ]
Riff 4 Verse: Played 3 times by guitar one only.
--------------------------------------------------------------------------------
--------------------------------------------------------------------------------
--------------------------------------------------------------------------------
--------------------------------------------------------------------------------
--------------------------------------------5--5--6--6--------------------------
--5--0--5--0--5--0--5--0--5--0--5--0--------------------------------------------

Riff 5 Played by both guitars once.
--------------------------------------------------------------------------------
--------------------------------------------------------------------------------
--------------------------------------------------------------------------------
--------------------------------------------------------------------------------
---------------------------5--5--9--9-----5--5--5--5--5--5--5--5--9--9--9--14---
5-0-5-0-5-0-5-0-5-0-5-0-------------------5--5--5--5--5--5--5--5--9--9--9--14---

Riff 6 Chorus:  Whole Riff played twice by both guitars.
   -----------------------------------------------------------------------------
   -----------------------------------------------------------------------------
   -----------------------------------------------------------------------------
   ------------5--6---4---------------------------------------------------------
   -----0--0---5--6---4---------0--0--5----0--0--5------------------------------
   -----0--0--------------------0--0--5----0--0--5------------------------------
P.M.........             x3    .....      .....     x1


Riff 7 Outro: Whole Riff Played by both guitars twice
--------------------------------------------------------------------------------
--------------------------------------------------------------------------------
--------------------------------------------------------------------------------
-----------------------4--------------------------------------------------------
--0--3--0--5--0--3--4--------------3--4--5--4--3---------3--4--5----6-----------
-----------------------------------3--4--5--4--3---------3--4--5----6-----------
                         x4                      x3      4th time only
Related for Wiggins - Old Churches And Dead Priests tab
Advertisement will be closed in 10 seconds