Song name
# A B C D E F G H I J K L M N O P Q R S T U V W X Y Z

Misc Your Songs - Gray Winter tab

-------------------------------------------------------------------------------
                             GRAY WINTER - We Are All Plants
-------------------------------------------------------------------------------
Tabbed by: Justin Hunt
E-mail: mydaddyatemyeyes@gmail.com

Tuning: C#F#BEG#C# - One and half step down tuning

INTRO: x2
e|---------------------------------------------------------------------------|
B|---------------------------------------------------------------------------|
G|---------------------------------------------------------------------------|
D|----------0---------------0---------------0-----------0--------------------|
A|----5---5---5---5---5---5---5-------5---5---5---5---5---5------------------|
E|--7---7-------7---7---7-------7-0-3---3-------3---3-------3-0--------------|
    Bm                              G

VERSE:
Hope is gone or it's far away, the sun went down and the sky turned gray
e|---------------------------------------------------------------------------|
B|--Hope------------------------the-sun--------------------------------------|
G|---------------------------------------------------------------------------|
D|----------0---------------0---------------0-----------0--------------------|
A|----5---5---5---5---5---5---5-------5---5---5---5---5---5------------------|
E|--7---7-------7---7---7-------7-0-3---3-------3---3-------3-0--------------|
    Bm                              G

From the campaigns that were wrought, broken folks and a couple dreadnoughts
e|---------------------------------------------------------------------------|
B|--From---------------------------broken-folks-------------War--------------|
G|---------------------------------------------------------------------------|
D|----------0---------------0---------------0-----------0--------------------|
A|----5---5---5---5---5---5---5-------5---5---5---5---5---5------------------|
E|--7---7-------7---7---7-------7-0-3---3-------3---3-------3-0--------------|
    Bm                              G

War cut my slack into half, Ran out of prayers a few months back
e|---------------------------------------------------------------------------|
B|--cut-my-------------------------Ran------------------------So-------------|
G|---------------------------------------------------------------------------|
D|----------0---------------0---------------0-----------0--------------------|
A|----5---5---5---5---5---5---5-------5---5---5---5---5---5------------------|
E|--7---7-------7---7---7-------7-0-3---3-------3---3-------3-0--------------|
    Bm                              G

So tell me how I know
e|---------------------------------------------------------------------------|
B|--tell-me~~~----------------------how-I-know--------------and--------------|
G|---------------------------------------------------------------------------|
D|----------0---------------0---------------0-----------0--------------------|
A|----5---5---5---5---5---5---5-------5---5---5---5---5---5------------------|
E|--7---7-------7---7---7-------7-0-3---3-------3---3-------3-0--------------|
    Bm                              G

And show me where to go
e|---------------------------------------------------------------------------|
B|--show-me~~~----------------------where-to-go------------------------------|
G|---------------------------------------------------------------------------|
D|----------0---------------0---------------0-----------0--------------------|
A|----5---5---5---5---5---5---5-------5---5---5---5---5---5------------------|
E|--7---7-------7---7---7-------7-0-3---3-------3---3-------3-0--------------|
    Bm                              G

CHORUS x2:
--> I  walked into a graveyard and waved myself goodbye
e|--------------2x-------------------------3x---3/5-3--3333------------------|
B|--------------3x---2-22--2x--------------3x---3/5-3--3333------------------|
G|--------------4x---2-22--2x--------------0x---0~--0--0000------------------|
D|-----4~-------4x---------2x--------------0x--------------------------------|
A|-----2~-------2x---------0x-------2~-----2x--------------------------------|
E|----------------------------------3~-----3x--------------------------------|
       Bm            A              G

--> It's been a long time since I've felt alive
e|----------------2x------------------------3~--3-33-3333--------------------|
B|----------------3x-------2-22--2x---------3~--3-33-3333--------------------|
G|----------------4x-------2-22--2x---------0~--0-00-0000--------------------|
D|--------4~------4x-------------2x---------0~--0-00-0000--------------------|
A|--------2~------2x-------------0x---2~----2~-------------------------------|
E|------------------------------------3~--- 3~-------------------------------|
          Bm               A          G

VERSE 2:

Bm                                              G
It scatters the roaches when freedom approaches, we lost that right so long ago
Bm                                     G
The system won, it killed off everyone, nobody has a home
Bm                                       G
This broken world is what I used to know, now it's crippled and covered in snow
Bm                                      G
Splintered in a snow that never melts, falling like a gray winter that no oneís ever felt

CHORUS x2

BRIDGE 1 x2:
--> These chains of freedom  pull again
e|--------2~~~------2~~------------3--3--3--3333-----------------------------|
B|--------3~~~------3~~------2--2--3--3--3--3333-----------------------------|
G|--------4~~~------4~~------2--2--0--0--0--0000-----------------------------|
D|--------4~~~------4~~------2--2--0--0--0--0000-----------------------------|
A|--------2~~~------2~~------0--0--2--2--2--2222-----------------------------|
E|---------------------------------3--3--3--3333-----------------------------|
          Bm                 A     G

--> This prison that we're all liv- ing in
e|--------2~~~----2~~----222x-----------3--3--3--3333------------------------|
B|--------3~~~----3~~----333x---2x--2x--3--3--3--3333------------------------|
G|--------4~~~----4~~----444x---2x--2x--0--0--0--0000------------------------|
D|--------4~~~----4~~----444x---2x--2x--0--0--0--0000------------------------|
A|--------2~~~----2~~----222x---0x--0x--2--2--2--2222------------------------|
E|--------------------------------------3--3--3--3333------------------------|
          Bm                    A       G

BRIDGE 2 x4:
e|--2~~~--2~~~------------3--3--3--3333--------------------------------------|
B|--3~~~--3~~~--2--22--2--3--3--3--3333--------------------------------------|
G|--4~~~--4~~~--2--22--2--0--0--0--0000--------------------------------------|
D|--4~~~--4~~~--2--22--2--0--0--0--0000--------------------------------------|
A|--2~~~--2~~~--0--00--0--2--2--2--2222--------------------------------------|
E|------------------------3--3--3--3333--------------------------------------|
    Bm           A         G

OUTRO:
e|------------------------------------------------------------------|
B|----------3---------------3---------------2---------------2-------| cont.
G|----4---4---4---4---4---4---4---4---2---2---2---2---2---2---2---2-| in 
D|------4-------4-------4-------4-------2-------2-------2-------2---| next
A|--2---------------2---------------0---------------0---------------| bar
E|------------------------------------------------------------------|
    Bm                              A

e|------------------------------------------------------------------|
B|----------0---------------0---------------2---------------2-------|
G|----0---0---0---0---0---0---0---0---2---2---2---2---2---2---2---2-|
D|------0-------0-------0-------0-------2-------2-------2-------2---|
A|--2---------------2---------------0---------------0---------------|
E|------------------------------------------------------------------|
    G                               A

x4:
--> Wandering~~~                                    in the snow~~~
e|------------------------------------------------------------------|
B|----------3---------------3---------------2---------------2-------|
G|----4---4---4---4---4---4---4---4---2---2---2---2---2---2---2---2-|
D|------4-------4-------4-------4-------2-------2-------2-------2---|
A|--2---------------2---------------0---------------0---------------|
E|------------------------------------------------------------------|
    Bm                              A

--> This gray winter~~~                     covers our tracks~~~
e|------------------------------------------------------------------|
B|----------0---------------0---------------2---------------2-------|
G|----0---0---0---0---0---0---0---0---2---2---2---2---2---2---2---2-|     
D|------0-------0-------0-------0-------2-------2-------2-------2---|
A|--2---------------2---------------0---------------0---------------|
E|------------------------------------------------------------------|
    G                               A

************************************

| /   slide up
| ~   let the sound ring
| x   Mute note

************************************
Full lyrics:

Hope is gone or it's far away
The sun went down and the sky turned gray
From the campaigns that were wrought
Broken folks and a couple dreadnoughts
War cut my slack into half
Ran out of prayers a few months back
So tell me how I know
And show me where to go

I walked into a graveyard and waved myself goodbye
Itís been a long time since Iíve felt alive

It scatters the roaches when freedom approaches
We lost that right so long ago
The system won, it killed off everyone
Nobody has a home
This broken world is what I used to know
Now it's crippled and buried in snow
Splintered in a snow that never melts
Falling like a gray winter that no one's ever felt

I walked into a graveyard and waved myself goodbye
It's been a long time since Iíve felt alive

These chains of freedom pull again
This prison that we're all living in

Wandering in the snow
This gray winter covers our tracks
************************************
Tap to rate this tab
# A B C D E F G H I J K L M N O P Q R S T U V W X Y Z