Song name
# A B C D E F G H I J K L M N O P Q R S T U V W X Y Z

Misc Your Songs - Same Day tab

   - Same Day - 
-------------------------------------------------------------------------------
Tabbed by: tony
Email: linkinpark_punker@hotmail.com
This song is a beautiful song if you can play it right. Email me if you enjoy it
or have problems with it. One thing I should note is that it doesn’t sound right
with just down strokes, and the strumming pattern isn’t, up down up down……… I
hope u can figure it out.. have fun


Tuning: Standard

  INTRO
e|-----------------------------------------|
B|-----------------------------------------|
G|-----------------------------------------|
D|----0----------0-----------0-------------|
A|------0-----------0-----------0----------| do 2X
E|-7---------5-----------3------------2~---|
   Verse
e|----------------------------------------------|
B|----------------------------------------------|
G|----------------------------------------------|
D|-0---0---0---0--------------------------------|
A|-x---x---x---x----strum 6 times each 2X-------|
E|-7---5---3---2--------------------------------|
   After second time do this
e|--------------------------------|
B|--------------------------------|
G|--------------------------------|
D|-0-------0-------0--------------|
A|-x-5X----x—5X----x---10X--------|
E|-7-------9-------10-------------|

Then repeat verse and intro twice.

~ Hold Note
Tap to rate this tab
 
# A B C D E F G H I J K L M N O P Q R S T U V W X Y Z