Song name
# A B C D E F G H I J K L M N O P Q R S T U V W X Y Z

Misc Your Songs - Ryan Ohallahan - Repo Man tab

please put this in your misc. your songs tab for me
Song#2
Written By: Ryan O'Hallahan
Tuning:Standard
Intro and Verse Riff- Played Throughout whole song 

e|-------------------------------------------------------
B|-------------------------------------------------------
G|-------------------------------------------------------
D|-------------------------------------------------------
A|-5----5----555----5----5----555------------------------
E|-3-xx-3-xx-333-xx-3-xx-3-xx-333-xx---------------------

e|-------------------------------------------------------
B|-------------------------------------------------------
G|-------------------------------------------------------
D|-7----7----777----7----7----777------------------------
A|-5-xx-5-xx-555-xx-5-xx-5-xx-555-xx---------------------
E|-------------------------------------------------------

e|-------------------------------------------------------
B|-------------------------------------------------------
G|-------------------------------------------------------
D|-5----5----555----3----5----555------------------------
A|-3-xx-3-xx-333-xx-5-xx-3-xx-333-xx---------------------
E|-------------------------------------------------------

e|-------------------------------------------------------
B|-------------------------------------------------------
G|-------------------------------------------------------
D|-------------------------------------------------------
A|-5----5----555----5----5----555----777777--------------
E|-3-xx-3-xx-333-xx-3-xx-3-xx-333-xx-555555--------------
 Solo-play twice
e|-------------------------------------------------------
B|-------------------------------------------------------
G|-12b---------------------------------------------------
D|-----12-14-------14---12-14-------14---12------12------
A|-----------12-14------------12-14---------12-14---12-14
E|-------------------------------------------------------
End
e|-------------------------------------------------------
B|-------------------------------------------------------
G|-------------------------------------------------------
D|------------------777777-------------------------------
A|-5----5----555----555555-5-----------------------------
E|-3-xx-3-xx-333-xx--------3-----------------------------
Tap to rate this tab
# A B C D E F G H I J K L M N O P Q R S T U V W X Y Z