Guitaretab - guitar tabs
Song name
# A B C D E F G H I J K L M N O P Q R S T U V W X Y Z

Misc Your Songs - Little Riff tab

----------------------------------------------------------------------------
			     little riff - Misc Your Songs
----------------------------------------------------------------------------
Tabbed by: Seth Munoz
Email:Supafly573@aol.com

Tuning:Standard(E,A,D,G,B,e)
4/4 time signature*
[ Tab from: http://www.guitaretab.com/m/misc-your-songs/49788.html ]
e|-------------------|----------- 0--------|--------------------|-----|
B|-----------6-------|--------------6---6--|-----------6--------|-----|
G|------7------7---7-|------7--------------|------7------7---7--|-----|
D|--0-0---0------0---|--8-8---8-------8----|--7-7---7------7----|-----|
A|-------------------|---------------------|--------------------|-----|
E|-------------------|---------------------|--------------------|-----|
    x x   x      x      x x   x       x       x x   x      x


e|-----------0--------------------|
B|-------------6---6--------------|
G|------7----------------3---3h5--|
D|--5-5---5------5----------------|
A|-------------------5-5---5------|
E|--------------------------------|
    x x   x      x   x x   x
You can also mute the deeper notes to get a little bit different sound.


| /  slide up
| \  slide down
| h  hammer-on
| p  pull-off
| ~  vibrato
| +  harmonic
| x  Mute note
============================================================================
Related for Little Riff tab
×
Little Riff