Song name
# A B C D E F G H I J K L M N O P Q R S T U V W X Y Z

Misc Your Songs - Milazzo Joe - Take It Easy tab

This is a song i made up

e|----------------------------------------------|
B|-----0-0-------0-0-------0-0-------0-0--------|
G|-----0-0-------0-0-------0-0-------0-0--------|
D|-----0-0-------0-0-------0-0-------0-0--------|       x2
A|----------------------------------------------|
E|---0---------2---------3---------2------------|

e|----------------------------------------------|
B|-----0-0-------0-0-------0-0-------0-0--------|
G|-----0-0-------0-0-------0-0-------0-0--------|
D|-----0-0-------0-0-------0-0-------0-0--------|       x2
A|---0---------2---------3---------2------------|
E|----------------------------------------------|


e|----------------------------------------------|
B|---------0--------0---------0---------0-------|
G|-------0--------0---------0---------0---------|
D|-----0--------0---------0---------0-----------|       
A|----------------------------------------------|
E|--0--------2---------3--------2---------------|


e|----------------------------------------------|
B|---------0--------0---------0---------0-------|
G|-------0--------0---------0---------0---------|
D|-----0--------0---------0---------0-----------|       
A|---0---------2---------3---------2------------|
E|----------------------------------------------|

its just a start please tell me if your going to use it let us know what u think
joejoemilazzo@hotmail.com cheers keep on rockin
Tap to rate this tab
# A B C D E F G H I J K L M N O P Q R S T U V W X Y Z