Guitaretab - guitar tabs
Song name
# A B C D E F G H I J K L M N O P Q R S T U V W X Y Z

Misc Your Songs - Mr Thinkativity - Hard Rock Cafe tab

Title: Hard Rock Cafe
Composer: Mr. Thinkativity
Tuning: Standard
Played With Some Distortion

Intro
  p.m. ----------------------------------------------| p.m.
e----------------------------------------------------|
b----------------------------------------------------|
g----------------------------------------------------|
d----------------------------------------------------|
a-77-77-77-77-777-77-77-77-77-777--------------------|
E-55-55-55-55-555-55-55-55-55-555--------------------|

Verse

  p.m. ----------------------------------------------| p.m.
e----------------------------------------------------|
b----------------------------------------------------|
g----------------------------------------------------|
d-------------------------------5-7------------------|
a-77-77-77-77-777-77-77-77-77-7----------------------|
E-55-55-55-55-555-55-55-55-55------------------------|

  p.m. ----------------------------------------------| p.m.
e----------------------------------------------------|
b----------------------------------------------------|
g----------------------------------------------------|
d-----------------------------7-5--------------------|
a-77-77-77-77-777-77-77-77-77-----7------------------|
E-55-55-55-55-555-55-55-55-55------------------------|
[ Tab from: http://www.guitaretab.com/m/misc-your-songs/52012.html ]
Chorus
e---------------------------------------------------|
b---------------------------------------------------|
g---------------------------------------------------|
d---------------------------------------------------|
a-7/9-9-77-77-7-7-7\5-5-77-77-7-7-------------------|
E-5/7-7-55-55-5-5-5\3-3-55-55-5-5-------------------|

e---------------------------------------------------|
b---------------------------------------------------|
g---------------------------------------------------|
d---------------------------------------------------|
a-7/9-9-77-77-7-7-7\5-5-77-77-7-7-7/9-9-------------|
E-5/7-7-55-55-5-5-5\3-3-55-55-5-5-5/7-7/13p0--------|

Outro
  p.m. ----------------------------------------------| p.m.
e----------------------------------------------------|
b----------------------------------------------------|
g----------------------------------------------------|
d----------------------------------------------------|
a-77-77-77-77-777-77-77-77-77-77/9-------------------|
E-55-55-55-55-555-55-55-55-55-55/7/13p0--let-ring----|


Order

Intro x1
Verse x1
Chorus x1
Verse x2
Chorusx1
Verse x2
Verse x1( No Words )
Outro x1

I have lyrics for the song, but they are still in progress, i will update with
the first song ( seperate song altogether, but the music and lyrics flow together,
jus a time and impatience issue i have ). thanks ya'll !!
Related for Mr Thinkativity - Hard Rock Cafe tab
×
Mr Thinkativity - Hard Rock Cafe