Song name
# A B C D E F G H I J K L M N O P Q R S T U V W X Y Z

Misc Your Songs - Trevor Judkins - My Mommas Blues tab

This is something i just made up so here it is

			     SONG NAME - My mommas Blues
Tabbed by: Trevor Judkins
Email:zosoguitarist01@aol.com

Tuning:standard(eBGDAE)

e|---------------------------------------9------------------9---------------|
B|-9---------9-----------9-----------9-------12---9-------------11----------|
G|----12(13)-----12(13)------12(13)-------------------11~-----------9-10----|
D|--------------------------------------------------------------------------|
A|--------------------------------------------------------------------------|
E|--------------------------------------------------------------------------|

e|---------------------------------------------------------9---12--14--12--9|
B|-----------------9-----------9-----------9-----------9--------------------|
G|---------------------12(13)------12(13)------12(13)-----------------------|
D|---11---8---11------------------------------------------------------------|
A|--------------------------------------------------------------------------|
E|--------------------------------------------------------------------------|


e|--------------------------------------------------------------------------|
B|--11--9--------------------------9----------------------------------------|
G|---------11---9---8h9p8--------------12(13)--11--9--9h11p9----------------|
D|---------------------------11~------------------------------11~-----------|
A|--------------------------------------------------------------------------|
E|--------------------------------------------------------------------------|

e|------------------------------------------------------------------------9-|
B|--9----------------------------9---------------------------------9--12----|
G|----12(13)--11--9--9h11p9---------12(13)--11--9------9---11--12-----------|
D|---------------------------11~-------------------11-----------------------|
A|--------------------------------------------------------------------------|
E|--------------------------------------------------------------------------|

e|--------------------------------------------------------------------------|
B|--9-------------------------9--------------------------9------------------|
G|----12(13)--11--9--9h11p9------12(13)--11--9--9h11p9-------12(13)--11--9--|
D|--------------------------------------------------------------------------|
A|--------------------------------------------------------------------------|
E|--------------------------------------------------------------------------|

e|--------------------------------------------------------------------------|
B|--------------------------------------------------------------------------|
G|--------------------------------------------------------------------------|
D|--11---9------------------------------------------------------------------|
A|------------11---9h11p9---------------------------------------------------|
E|---------------------------12---9-----------------------------------------|


 

| h  hammer-on
| p  pull-off
| ~  vibrato
| ( ) fret that needs to be met by a bend
Tap to rate this tab
# A B C D E F G H I J K L M N O P Q R S T U V W X Y Z