Song name
# A B C D E F G H I J K L M N O P Q R S T U V W X Y Z

Misc Your Songs - Picuz - Why tab

-----------------------------------------------------------------------------
   PicuZ- Why? (My first song, but Im pretty proud hehe)
-----------------------------------------------------------------------------

Tabbed by: Sren Sptte
Email: picuz6@hotmail.com

Tuning: Standard EADGBe

                   
---------0------------0------------3------------1-----|
-------1---1-------1----1-------3----3-------1-----1--|
----2-----------0------------4------------2-----------|    x2
------------------------------------------------------|
------------------------------------------------------|
------------------------------------------------------|


Am C G F      x2

Dm G Em7  ---0---0---0--0-1------|
          ---2---2---2--2-2------| 
          ---2---2---2--2-2------|
          ---0---0---0--0-0------|
          -----------------------|
          -----------------------|

---------0------------0------------3------------1-----|
-------1---1-------1----1-------3----3-------1-----1--|
----2-----------0------------4------------2-----------|    x2
------------------------------------------------------|
------------------------------------------------------|
------------------------------------------------------|

Am C G F      x2

Dm G Em7  ---0---0---0--0-1------|
          ---2---2---2--2-2------| 
          ---2---2---2--2-2------|
          ---0---0---0--0-0------|
          -----------------------|
          -----------------------|

---------0------------0------------3------------1-----|
-------1---1-------1----1-------3----3-------1--------|
----2-----------0------------4------------2-----------|
------------------------------------------------------|
------------------------------------------------------|
------------------------------------------------------|
Tap to rate this tab
# A B C D E F G H I J K L M N O P Q R S T U V W X Y Z