Song name
# A B C D E F G H I J K L M N O P Q R S T U V W X Y Z

Misc Your Songs - Criscuolo Brian - Opening tab

----------------------------------------------------------------------------
			 Opening - Brian Criscuolo
----------------------------------------------------------------------------
this is my own song that i wrote...its only the intro though.... im just seeing if this works

Tabbed by: a RANGER fan9
Email: arangerfan9@netscape.net

Tuning: regular
(guitar 1 x2)
e|-------------------------------------------------------------------------|
B|-------------------------------------------------------------------------|
G|-------------------------------------------------------------------------|
D|-------------------------------------------------------------------------|
A|-------------------------------------------------------------------------|
E|-8-8-8-8-8--7-7-7-7----8-8-8-8-8--7--------------------------------------|

(guitar 2 directly after guitar 1 finishes)
e|-7--7-7------------------------------------------------------------------|
B|-7--7-7------------------------------------------------------------------|
G|-7--7-7-----5h-----------------------------------------------------------|
D|-7--7-7----------------4-7-----------------------------------------------|
A|-7--7-7--------------3---------------------------------------------------|
E|-7--7-7--------------------8----7-7-7-7----------------------------------|

(guitar 1)
e|-------------------------------------------------------------------------|
B|-------------------------------------------------------------------------|
G|-------------------------------------------------------------------------|
D|-------------------------------------------------------------------------|
A|-------------------------------------------------------------------------|
E|-8-8-8-8-8--7-7-7-7----8-8-8-8-8--7--7h-7~-------------------------------|


| /  slide up
| \  slide down
| h  hammer-on
| p  pull-off
| ~  vibrato
| +  harmonic
| x  Mute note
| x2 play twice
============================================================================
Tap to rate this tab
# A B C D E F G H I J K L M N O P Q R S T U V W X Y Z