Song name
# A B C D E F G H I J K L M N O P Q R S T U V W X Y Z

Misc Your Songs - Edgehead7 - Lullaby Of Death tab

Help us improve GuitareTab! Take a short survey!
----------------------------------------------------------------------------
			     The Lullaby of Death - Edgehead7
----------------------------------------------------------------------------

 Standard Tuning (or Drop D- The 6th string isn't used, so there's no difference)


e|-----0--------|------0-----0-|--3-------------|---------------------|
B|-1-----1---1--|--3-----3-----|----------0-----|--------------0--1---|
G|---0-----0----|----0-----0---|----0---0---0---|------0--0h2---------|
D|--------------|--------------|------2---------|----2----------------|
A|-3------------|--2-----------|--2-------------|--3------------------|
E|--------------|--------------|----------------|---------------------|


e|-3-1--0h1--3p1p0-|----------------------0h1--|
B|-----------------|-0-1--3p1--------0h1-------|
G|-----------------|------------0-2------------|
D|-----------------|----------0----------------|
A|-----------------|---------------------------|
E|-----------------|---------------------------|


e|-----------0h1h3p2----------------------|
B|---1h3--0-----------3p2-1--0h1------1---|
G|-0-----------------------------0h2------|
D|----------------------------------------|
A|----------------------------------------|
E|----------------------------------------|
Related for Edgehead7 - Lullaby Of Death tab