Song name
# A B C D E F G H I J K L M N O P Q R S T U V W X Y Z

Misc Your Songs - Dan Wiesman - Its All Beer And Skittles tab

This is a song I wrote awhile ago, for my now wife... it's a very popular song amongst
my friends. It's easy to play.  This is my own work please don't copy for profit." But
if it gets you laid, play it."




4\4 STANDARD TUNING --- CAPO ON 1ST OR NOT AT ALL
                             
-3-3-3-3---3    |(four count)| 3--3--3-------|two count |-3-3-----3--------|
-3-3-3-3---3    | (let ring) | -3--3--3------|          |-3-3------3-------|
-0-0-0-0---0  o |            | --0--0--0-----|          |-0-0-------0h2p0--|                  
-0-0-0-0---2    |            | --------------|          |-0-2-------------2|
-2-2-2-2---3  o |            | --------------|          |-2-3--0h2-3------3|
-3-3-3-3---x    |            | --------------|          |-3----------------| 
 d u d u   d    2x    PLAY THESE NOTES HIGH ON THE NECK
                                

CHORUS                                       v
3-3-3-3-3-|-3--3----|-3-3-3-3--3-3-|---3---| repeat chorus 2x 
3-3-3-3-3-|-3--3----|-3-3-3-3--3-3-|---3---| before moving on
0-0-0-0-0-|-2--0----|-0-0-0-0--0-2-|---0---|
2-2-2-2-0-|----0----|-0-0-0-0--2---|---0---|
3-3-3-3-0-|----2----|-2-2-2-2--3---|---0---|
--------0-|---------|-3-3-3-3------|-------|


|------3---3-|-----0----3-|-3-3------3----------| return to chorus and play 
|-----3-3--3-|----1-0---3-|-3-3-------3---------| once then continue song 
|----0---0-0-|---0---0--0-|-0-0---------0h2p0---| to the end.
|---0------2-|--2-----0-0-|-0-2---------------2-|
|--2-------3-|-3--------3-|-2-3--0h2--3-------3-|
|-3----------|------------|-3-------------------|




|------------3|--------|--------------|----------2-2-2/3-|
|------------3|-3~-----|----------3-3-|----------1-1-1/0-|
|--------2----|--------|--------------|-------2--2-2-2/0-|
|-0H2P0-------|--------|-OH2P0--------|-0h2p0----------0-|
|-------------|-2~-----|--------2-3---|----------------2-|
|-------------|--------|------------3-|----------------3-|





Feel free to comment , I'll be happy to respond to any email at angryplowboy1@fuse.net
Tap to rate this tab
 
# A B C D E F G H I J K L M N O P Q R S T U V W X Y Z