Song name
# A B C D E F G H I J K L M N O P Q R S T U V W X Y Z

Misc Your Songs - Mike Mckeand - My Brother Is Dead tab

this is my personal tab  i wishb to let people to play it so they can exapand thier 
as much as i did when i made it

-3-5------------------5-3--|
----3/5-7----------7/5-----|
----------5-7---7-5--------|
---------------------------|
---------------------------|
---------------------------|
x2

-3-5--------------------5-3---|
----3/5-7------------7/5----3-|
----------5-7-----7-5---------|
--------------5-7-------------|
------------------------------|
------------------------------|
intro ended

The main riff is played 7 times

-3-5--------------------7/5-3--|
----3/5-7-8-----------7-8------|
----------7-8------8-5---------|
-------------------------------|
-------------------------------|
-------------------------------|
x2

-3-5--------------------7/5-3-|
----3/5-7-8-----------7-8-----|
----------7-8------8-5--------|
--------------8-7-------------|
------------------------------|
------------------------------|
Tap to rate this tab
# A B C D E F G H I J K L M N O P Q R S T U V W X Y Z