Song name
# A B C D E F G H I J K L M N O P Q R S T U V W X Y Z

Misc Your Songs - Bigdavedude182 - A Kick In The Head tab

this is a song I made for my band and I still
need to show them but I thought I'd put
it down in case I forgot.

tuned down 1/2 a step

intro(palm muted)
e|--------------------------------|
B|------------------------3-----3-|
G|------------------------0-----0-|
D|-------0-------0----2-----2-2---|x4
A|---2-------2------3---3---3-3---|
E|-3---3---3---3------------------|

e|-----------------------|
B|--------------5-5-7-7--|
G|-----------------------|
D|-5-5-4-5-5-5--5-5-7-7--|x2
A|-5-5-5-5-5-5--3-3-5-5--|
E|-3-3-2-3-3-3-----------|

verse
e|-------------------------------------------------------------|
B|------------------5-5-5-5-5-5-5-5-------------------7-7-5-5--|
G|-4-4-4-4-4-4-4-4--5-5-5-5-5-5-5-5--4-4-4-4-4-4-4-4--7-7-5-5--|
D|-5-5-5-5-5-5-5-5--5-5-5-5-5-5-5-5--5-5-5-5-5-5-5-5--7-7-5-5--|X4
A|-5-5-5-5-5-5-5-5--3-3-3-3-3-3-3-3--5-5-5-5-5-5-5-5--5-5-3-3--|
E|-3-3-3-3-3-3-3-3-------------------3-3-3-3-3-3-3-3-----------|

Chorus
e|---------------------------------------|
B|-5~-5~---------------------------------|
G|-------5-4----------4-5--7-7-7-7--5-4--|
D|-----------5-5-5-5--4-5--7-7-7-7--5-4--|
A|-----------5-5-5-5--2-3--5-5-5-5--3-2--|
E|-----------3-3-3-3---------------------|

e|-----------------------------------------------------------5-5-5-5---------------|
B|-----------------------------------------------------------5-5-5-5--5-5-5-5-5-5--|
G|----------4-5--7-7-7-7-x-x-x-x-----------4-5--7-7-7-7--5-5-5-5-5-5--5-5-5-5-5-5--|
D|-5-5-5-5--4-5--7-7-7-7-x-x-x-x--5-5-5-5--4-5--7-7-7-7--7-7-7-7-7-7--5-5-5-5-5-5--|
A|-5-5-5-5--2-3--5-5-5-5-x-x-x-x--5-5-5-5--2-3--5-5-5-5--7-7-7-7-7-7--3-3-3-3-3-3--|
E|-3-3-3-3------------------------3-3-3-3----------------5-5-5-5-5-5---------------|

solo
e|---------7h8--10-10-10-10-8p7--|
B|-8-8-8-8-----------------------|
G|-------------------------------|
D|-------------------------------|x3
A|-------------------------------|
E|-------------------------------|

e|-12-12-12-12-10-8-8-8-8-8-8--12-12-12-12-10-10-10-10-8-7-8-7-8-7-8-7--|
B|----------------------------------------------------------------------|
G|----------------------------------------------------------------------|
D|----------------------------------------------------------------------|
A|----------------------------------------------------------------------|
E|----------------------------------------------------------------------|

this is a gangsta tune so don't diss it blad
(roughly translated 'thank you for taking your time
to read this tab and one day it will be number one!!')
Tap to rate this tab
# A B C D E F G H I J K L M N O P Q R S T U V W X Y Z