Song name
# A B C D E F G H I J K L M N O P Q R S T U V W X Y Z

Misc Your Songs - Wierd Ones - Daves Orgy tab

-----------------------------------------------------------------------
			     Dave's Orgy - Wierd Ones                      
------------------------------------------------------------------------


Chords

   E    Cadd9   D    Dsus2   
E|-0-----3------2-----0--|
B|-0-----3------3-----3--|
G|-1-----0------2-----2--|
D|-2-----2------0-----0--|
A|-2-----3------X-----X--|
E|-0-----X------X-----X--|

Intro:

   E          Cadd9        D                 E
E|-------0-0----------3----2------0h2-----2--0-----|
B|-0------------3------------3--------2------0-----|
G|---1------------0------------2--------3----1-----|
D|-----2-------------------0------1----------2-----|
A|-2------------3---3------------------------2-----|
E|-------------------------------------------0-----|


E       Cadd9     Dsus2                  E
Lets go to Dave's house, and close there door,
E                 Cadd9  D
Close it shut now. 
             E
And have and Orgy



(Linkin Park Style-Rap)

Strum E, Cadd9, D, E through out the wrap.


You didnt shut the door,
Just like you were told.
Now the world knows Davids secret,
And it starts to unfold.

The pain that you are feeling,
Is the pain that we shared.
You ruined David's life,
Dont expect him to care.

Now you want another orgy,
Just to take it slow.
You gotta know the funky lyrics,
And here they go...


E       Cadd9     Dsus2                  E
Lets go to Dave's house, and close there door,
E                 Cadd9  D
Close it shut now. 
             E
And have and Orgy

Cadd9
Lets have a..
D
Another
Cadd9      D        E
Lets have another Orgy.

Cadd9
Lets have a..
D
Another
Cadd9      D        E
Lets have another Orgy......
Tap to rate this tab
# A B C D E F G H I J K L M N O P Q R S T U V W X Y Z