Song name
# A B C D E F G H I J K L M N O P Q R S T U V W X Y Z

Misc Your Songs - Sam Lockwood - I Love You tab

-------------------------------------------------------------------------------
			     I LOVE YOU - SAM LOCKWOOD
-------------------------------------------------------------------------------
Tabbed by: Sam Lockwood
Email: babydontsweat@hotmail.com

Tuning: Standard

1st Verse

e|-2-2-2-2-2-2-2-2--0-2-3--------------------------2-2-2-2-2-2-2-2--3-2-0-----------------------|
B|-3-3-3-3-3-3-3-3---------2-2-2-2-2-2-2-2--0-2-3--3-3-3-3-3-3-3-3--3-3-3-----------------------|
G|-2-2-2-2-2-2-2-2---------2-2-2-2-2-2-2-2---------2-2-2-2-2-2-2-2--2-2-2--Play-twice-----------|
D|-------------------------2-2-2-2-2-2-2-2------------------------------------------------------|
A|-------------------------0-0-0-0-0-0-0-0------------------------------------------------------|
E|----------------------------------------------------------------------------------------------|

Chorus

e|------------------1-1-1-1-1-1-1-1----------------------3-3------------------------------------|
B|-1-1-1-1-1-1-1-1--1-1-1-1-1-1-1-1--2-2-2-2-2-2-2-2--1--3-3------------------------------------|
G|-0-0-0-0-0-0-0-0--2-2-2-2-2-2-2-2--2-2-2-2-2-2-2-2--0--0-0--Play-twice------------------------|
D|-2-2-2-2-2-2-2-2--3-3-3-3-3-3-3-3--1-1-1-1-1-1-1-1--2--0-0------------------------------------|
A|-3-3-3-3-3-3-3-3------------------------------------3--2-2------------------------------------|
E|-------------------------------------------------------3-3------------------------------------|

2nd Verse

e|----------------------------------------------------------------------------------------------|
B|----------------------------------------------------------------------------------------------|
G|-7-7-7-7-7-7-7-7-------------------7-7-7-7-7-7-7-7--12-10-8--Play-twice-----------------------|
D|-7-7-7-7-7-7-7-7--7-7-7-7-7-7-7-7--7-7-7-7-7-7-7-7--12-10-8-----------------------------------|
A|-5-5-5-5-5-5-5-5--7-7-7-7-7-7-7-7--5-5-5-5-5-5-5-5--10--8-6-----------------------------------|
E|------------------5-5-5-5-5-5-5-5-------------------------------------------------------------|

Outro

e|-2-2-2-2-2-2-2-2--0-2-3--------------------------2-2-2-2-2-2-2-2--3-2-0-----------------------|
B|-3-3-3-3-3-3-3-3---------2-2-2-2-2-2-2-2--0-2-3--3-3-3-3-3-3-3-3--3-3-3-----------------------|
G|-2-2-2-2-2-2-2-2---------2-2-2-2-2-2-2-2---------2-2-2-2-2-2-2-2--2-2-2--Play-twice-----------|
D|-------------------------2-2-2-2-2-2-2-2------------------------------------------------------|
A|-------------------------0-0-0-0-0-0-0-0------------------------------------------------------|
E|----------------------------------------------------------------------------------------------|

Look over here and follow me,
Hold me close and i'll holler you,
Hold me near because i love you,

Too little time and times changing,
Stop the clock and i'm waiting,
Hold me near because i love you,

Where did you go,
I don't know where i stand with you,
Hold me so close,
And i won't let you leave again,

Look over here and follow me,
Hold me close and i'll holler you,
Hold me near because i love you,

Too little time and times changing,
Stop the clock and i'm waiting,
Hold me near because i love you,
Tap to rate this tab
# A B C D E F G H I J K L M N O P Q R S T U V W X Y Z