Song name
# A B C D E F G H I J K L M N O P Q R S T U V W X Y Z

Misc Your Songs - Sam Lockwood - My Angel tab

-------------------------------------------------------------------------------
			     MY ANGEL - SAM LOCKWOOD
-------------------------------------------------------------------------------
Tabbed by: Sam Lockwood
Email: babydontsweat@hotmail.com

Tuning: Standard

This is the simplest song i wrote, chord wise, but the lyrics are powerful. I had
a dream that my grandma died and when i woke up i wrote down these lyrics.

Verse

e|-3--3-3-3-3-3-3-3-3-3--3--3-3-3-3-3-3-3-3-3----------------------------------------------------------------------|
B|-3--3-3-3-3-3-3-3-3-3--3--3-3-3-3-3-3-3-3-3----------------------------------------------------------------------|
G|-0--0-0-0-0-0-0-0-0-0--0--0-0-0-0-0-0-0-0-0--Play-four-times-----------------------------------------------------|
D|-0--0-0-0-0-0-0-0-0-0--2--2-2-2-2-2-2-2-2-2----------------------------------------------------------------------|
A|-2--2-2-2-2-2-2-2-2-2--3--3-3-3-3-3-3-3-3-3----------------------------------------------------------------------|
E|-3--3-3-3-3-3-3-3-3-3--------------------------------------------------------------------------------------------|

Chorus

e|-3--3-3-3-3-3-3-3-3-3--3--3-3-3-3-3-3-3-3-3--3--3-3-3-3-3-3-3-3-3--3--3-3-3-3-3-3-3-3-3--------------------------|
BŠ-3--3-3-3-3-3-3-3-3-3--3--3-3-3-3-3-3-3-3-3--3--3-3-3-3-3-3-3-3-3--3--3-3-3-3-3-3-3-3-3--------------------------|
G|-0--0-0-0-0-0-0-0-0-0--0--0-0-0-0-0-0-0-0-0--0--0-0-0-0-0-0-0-0-0--0--0-0-0-0-0-0-0-0-0--Play-twice--------------|
D|-2--2-2-2-2-2-2-2-2-2--2--2-2-2-2-2-2-2-2-2--0--0-0-0-0-0-0-0-0-0--2--2-2-2-2-2-2-2-2-2--------------------------|
A|-2--2-2-2-2-2-2-2-2-2--3--3-3-3-3-3-3-3-3-3--2--2-2-2-2-2-2-2-2-2--3--3-3-3-3-3-3-3-3-3--------------------------|
E|-0--0-0-0-0-0-0-0-0-0------------------------3--3-3-3-3-3-3-3-3-3------------------------------------------------|

Verse 1

I can still feel the tears roll down my cheeks,
As you gazed into my eyes drifting out of reach,
No words could describe the mood of that day,
When the angels came down and flew you away,

Chorus

If i could see you for one last time,
All i'd do is probably cry,
If i could see you for one last time,
I'd say goodbye,

Verse 2

I'll always remember the twinkle in your eye,
The smile on your face as i kissed you goodbye,
You know you've always meant the world to me in every way,
As odd as it may sounds i pray for you each day,

Chorus

If i could see you for one last time,
All i'd do is probably cry,
If i could see you for one last time,
I'd say goodbye,

Last Chorus

If i could see you for one last time,
All i'd do is probably cry,
If i could see you for one last time,
I'd give a smile.
Tap to rate this tab
# A B C D E F G H I J K L M N O P Q R S T U V W X Y Z