Song name
# A B C D E F G H I J K L M N O P Q R S T U V W X Y Z

Misc Your Songs - Alex Griggs - Duno tab

this is so random i just thought i would try dis out
this is and actual song but i made it up so try it if u want

-------------------------------------------------------------------------------
			     duno - Alex Griggs
-------------------------------------------------------------------------------
Tabbed by: Griggsi ah bah
Email:griggsi@hotmail.co.uk

Tuning:standard

intro

e|---------------------------------------------------------------------------|
B|---------------------------------------------------------------------------|
G|---------------------------------------------------------------------------|
D|-0-0-1-2-1-0----0-0-1-2-1-0----0-0-1-2-1-0--------3---3-2~-0---------------|
A|-------------1~-------------3~-------------5~-3-----5----------------------|
E|------------------------------------------------5--------------------------|

                           ply 3 times

random solo
e|--------------------------------12\15h18p15--15h18p15--15\17-17h20p17------|
B|---------------------------10/12-----------18--------18--------------20----|
G|-------------7h10p7-------11-----------------------------------------------|
D|-2--------568------10/12-12------------------------------------------------|
A|-2-----468-----------------------------------------------------------------|
E|-0--357--------------------------------------------------------------------|

e|-17h20p17--17h20p17---20br1817/15-h18p15/12-------------------------------|
B|---------20--------20----------------------13-----------------------------|
G|---------------------------------------------14~14-11---------------------|
D|-----------------------------------------------------14-11-----------2----|
A|----------------------------------------------------------13-11------2----|
E|---------------------------------------------------------------13-10\0----|

work wiv me ppl this is ma first tab so if u lik it pls email me at griggsi@hotmil.co.uk
Tap to rate this tab
# A B C D E F G H I J K L M N O P Q R S T U V W X Y Z