Song name
# A B C D E F G H I J K L M N O P Q R S T U V W X Y Z

Misc Your Songs - Matt Hare - Arpeggio tab

Q=80 BPM(slow, really slow)
Guitar I(whole song)-E A D G B e-clean


(Am)                               (E)
  E E E E E E E E E E E E E E E E   E E E E E E E E E E E E E E E E
|-0-------------0-0-------------0-|---------------------------------|
|---1---------1-----1---------1---|-0-------------0-0-------------0-|
|-----2-----2---------2-----2-----|---1---------1-----1---------1---|
|-------2-2-------------2-2-------|-----2-----2---------2-----2-----|
|---------------------------------|-------2-2-------------2-2-------|
|---------------------------------|---------------------------------|


(G)                                (C)
  E E E E E E E E E E E E E E E E   E E E E E E E E E E E E E E E E
|---------------------------------|---------------------------------|
|---------------------------------|-1-------------1-1-------------1-|
|-0-------------0-0-------------0-|---0---------0-----0---------0---|
|---0---------0-----0---------0---|-----2-----2---------2-----2-----|
|-----2-----2---------2-----2-----|-------3-3-------------3-3-------|
|-------3-3-------------3-3-------|---------------------------------|


(D)                                (Dm)
  E E E E E E E E E E E E E E E E   E E E E E E E E E E E E E E E E
|-2-------------2-2-------------2-|-1-------------1-1-------------1-|
|---3---------3-----3---------3---|---3---------3-----3---------3---|
|-----2-----2---------2-----2-----|-----2-----2---------2-----2-----|
|-------0-0-------------0-0-------|-------0-0-------------0-0-------|
|---------------------------------|---------------------------------|
|---------------------------------|---------------------------------|


(Am)
  E E E E E E E E E E E E E E E E
|-0-------------0-0-------------0-|
|---1---------1-----1---------1---|
|-----2-----2---------2-----2-----|
|-------2-2-------------2-2-------|
|---------------------------------|
|---------------------------------|




PLAY A C CHORD WITH THIS STRUM PATTERN: D=down u=up


 E   S   Q.  E   E   E
 D   D   U   U   D   U   


(Bm)                               (G)
  E E E E E E E E E E E E E E E E   E E E E E E E E E E E E E E E E
|-1-------------1-1-------------1-|---------------------------------|
|---2---------2-----2---------2---|---------------------------------|
|-----3-----3---------3-----3-----|-0-------------0-0-------------0-|
|-------3-3-------------3-3-------|---0---------0-----0---------0---|
|---------------------------------|-----2-----2---------2-----2-----|
|---------------------------------|-------3-3-------------3-3-------|




STRIKE A G CHORD LOUD FOR OUTRO(LET G CHORD RING)
Tap to rate this tab
 
# A B C D E F G H I J K L M N O P Q R S T U V W X Y Z