Song name
# A B C D E F G H I J K L M N O P Q R S T U V W X Y Z

Misc Your Songs - Matt Hare - Hiding The Dead Victims tab

Help us improve GuitareTab! Take a short survey!
Intro:

Pickslide-hold for 4 seconds

   E E E E E E E E E E E E E E E E E
D|-----------------------------------|
A|-----------------------------------|
F|-----------------------------------|
C|-----------------------------------|
G|-0-0-0-0-3-3-5-5-3-5-3-5-3-5-3-0-0-|
C|-0-0-0-0-3-3-5-5-3-5-3-5-3-5-3-0-0-|(x4)



chorus
   E E E E E E E E  E E E E E E E E  E E E E E E E E
D|---------------------------------------------------|
A|---------------------------------------------------|
F|---------------------------------------------------|
C|---------------------------------------------------|
G|-3-2-0-2-0-2-0-2--3-2-0-2-0-2-0-2--3-2-0-2-0-2-0-2-|
C|-3-2-0-2-0-2-0-2--3-2-0-2-0-2-0-2--3-2-0-2-0-2-0-2-|(x2)



Verse

   E E E E E E E E E E E E E E E E E
D|-----------------------------------|
A|-----------------------------------|
F|-----------------------------------|
C|-----------------------------------|
G|-0-0-0-0-3-3-5-5-3-5-3-5-3-5-3-0-0-|
C|-0-0-0-0-3-3-5-5-3-5-3-5-3-5-3-0-0-|(x4)



Bridge
   E E E E E E E E E E E E E E E E E E E E E E E E
D|-------------------------------------------------|
A|-------------------------------------------------|
F|-------------------------------------------------|
C|---------7-7-7-7-9-9-9-9---------7-7-7-7-5-5-5-5-|
G|-5-5-5-5-5-5-5-5-7-7-7-7-5-5-5-5-5-5-5-5-3-3-3-3-|
C|-5-5-5-5-----------------5-5-5-5-----------------|



chorus
   E E E E E E E E  E E E E E E E E  E E E E E E E E
D|---------------------------------------------------|
A|---------------------------------------------------|
F|---------------------------------------------------|
C|---------------------------------------------------|
G|-3-2-0-2-0-2-0-2--3-2-0-2-0-2-0-2--3-2-0-2-0-2-0-2-|
C|-3-2-0-2-0-2-0-2--3-2-0-2-0-2-0-2--3-2-0-2-0-2-0-2-|(x2)



Verse

   E E E E E E E E E E E E E E E E E
D|-----------------------------------|
A|-----------------------------------|
F|-----------------------------------|
C|-----------------------------------|
G|-0-0-0-0-3-3-5-5-3-5-3-5-3-5-3-0-0-|
C|-0-0-0-0-3-3-5-5-3-5-3-5-3-5-3-0-0-|(x4)



solo(tremolo pick each note for 2 seconds)
D|-----------------------------------------------------------------------|
A|--11----12----13----11----12----------------11----12----14-------------|
F|--------------------------------12----13----------------------14----13-|
C|-----------------------------------------------------------------------|
G|-----------------------------------------------------------------------|
C|-----------------------------------------------------------------------|



chorus
   E E E E E E E E  E E E E E E E E  E E E E E E E E
D|---------------------------------------------------|
A|---------------------------------------------------|
F|---------------------------------------------------|
C|---------------------------------------------------|
G|-3-2-0-2-0-2-0-2--3-2-0-2-0-2-0-2--3-2-0-2-0-2-0-2-|
C|-3-2-0-2-0-2-0-2--3-2-0-2-0-2-0-2--3-2-0-2-0-2-0-2-|(x2)

outro:
Pickslide fading out

this song is supposed to sound like a metal song if you play it right and at the tempo
(120=q) so it is pretty fast. Also, there is only one guitar so if you and your friend
are jamming together, then your'e out of luck with this song sorry not really lol jk.

Guitar I-CGCFAD-distortion

note: this is the author's own work and any copying of this song would be plagerism and
therefore illegal. however, if you politely ask me, i might let you use this and perform
it and i wouldnt press charges if it somehow became famous from a band playing. No
copying. official copyright by the state of ohio.

note: this song will never be changed, if you take some of the riffs and change the
tuning and the pattern, then that will not be plagerism, actually i would be honored
for you to take some of these riffs, it would make me feel better because that would
mean that i am improving since i have only been taking lessons for 4+1/2 months so.
Related for Matt Hare - Hiding The Dead Victims tab