Song name
# A B C D E F G H I J K L M N O P Q R S T U V W X Y Z

Misc Your Songs - Matt Hare - The Meaning Of Life tab

Help us improve GuitareTab! Take a short survey!
this song is meant to be like 15 minutes and im not even half way but heres the intro.
I know its a lot but this song is going to be long.

GTR I-(e,B,G,D,A,E)-clean-have on low volume for this to work:


MODERATELY SLOW

E|--------------------------------------|
B|--------------------------------------|
G|--------------------------------------|
D|-----6-6-----3-3-----6-6-----3-3------|
A|-7-7-4-4-4-4-1-1-7-7-4-4-4-4-1-1-(5*)-|
E|-5-5-----2-2-----5-5-----2-2----------|(X2) PLAY THE HARMONIC ON THE 2ND TIME ONLY


E|--------------------------------------------|
B|--------------------------------------------|
G|--------------------------------------------|
D|--------------------------------------------|
A|-----------------2-3-2-3-2-3-2-3------------|
E|-2-3-2-3-2-3-2-3-----------------2-3-2-3-2~-|(X2)
   . . . . . . . . . . . . . . . . . . . .


E|---------------------------------------------------|
B|---------------------------------------------------|
G|---------------------------------------------------|
D|---------------------1-2-3-4-5-----------1-2-3-4-5-|
A|-----------1-2-3-4-5-----------1-2-3-4-5-----------|
E|-1-2-3-4-5-----------------------------------------|



E|-----------------------------------------------------------------|
B|-----------------------------------------------------------------|
G|-----------------------------------------------------------------|
D|-----------------------------------------------------------------|
A|-7-7-7-7-5-5-5-5-8-8-8-8-5-5-5-5-7-7-7-7-5-5-5-5-8-8-8-8-5-5-5-5-|
E|-5-5-5-5-3-3-3-3-6-6-6-6-3-3-3-3-5-5-5-5-3-3-3-3-6-6-6-6-3-3-3-3-|(X2)
   . . . . . . . . . . . . . . . . . . . . . . . . . . . . . . . .


E|----------------------------------------------------|
B|----------------------------------------------------|
G|----------------------------------------------------|
D|----------------------------------------------------|
A|-----------------3-4-3-4-3-4-3-4--------------------|
E|-3-4-3-4-3-4-3-4-----------------3-4-3-4-3-4-3-4-3~-|
   . . . . . . . . . . . . . . . . . . . . . . . .


E|----------------------------------------------------------------|
B|----------------------------------------------------------------|
G|----------------------------------------------------------------|
D|----------------------------------------------------------------|
A|-5--5-5--6--6-6--4--4-4--3--3-3--7--7-7--6--6-6--8--8-8--9--9-9-|
E|-3--3-3--4--4-4--2--2-2--1--1-1--5--5-5--4--4-4--6--6-6--7--7-7-|


FASTER


E|-----------------------------------------------------------------|
B|---------6-------------------------------5-----------------------|
G|-----7-----7---7---------7-----------5-----5---5---------4-------|
D|---7---7-----7-------5-----5---5---5---5-----5-------2-----2---2-|
A|-5-----------------5---5-----5---3-----------------2---2-----2---|
E|-----------------5-------------------------------2---------------|


E|-----------------------------------------------------------------|
B|-----------------------------------------------------------------|
G|---------9---------------7---------------5---------------7-------|
D|-----7-----7---7-----5-----5---5-----3-----3---3-----7-----7---7-|
A|---7---7-----7-----5---5-----5-----3---3-----3-----7---7-----7---|
E|-7---------------5---------------5---------------7---------------|


E|--------------20-18b-17-18-17-----------------18-17----------17s13-13-|
B|-18b-15-17-18-----------------18-20b-17-18-17-------17-18-20----------|
G|----------------------------------------------------------------------|
D|----------------------------------------------------------------------|
A|----------------------------------------------------------------------|
E|----------------------------------------------------------------------|


E|----------20-18b-17-18-17-----------------18-17----------17s13-13-18s15-|
B|-15-17-18-----------------18-20b-17-18-17-------17-18-20----------------|
G|------------------------------------------------------------------------|
D|------------------------------------------------------------------------|
A|------------------------------------------------------------------------|
E|------------------------------------------------------------------------|


E|-15~-|
B|-----|
G|-----|
D|-----|
A|-----|
E|-----|


MODERATELY SLOW


E|---------------------------------------------------|
B|---------------------------------------------------|
G|---------------------------------------------------|
D|---------------------1-2-3-4-5-----------1-2-3-4-5-|
A|-----------1-2-3-4-5-----------1-2-3-4-5-----------|
E|-1-2-3-4-5-----------------------------------------|



E|-----------------------------------------------------------------|
B|-----------------------------------------------------------------|
G|-----------------------------------------------------------------|
D|-----------------------------------------------------------------|
A|-7-7-7-7-5-5-5-5-8-8-8-8-5-5-5-5-7-7-7-7-5-5-5-5-8-8-8-8-5-5-5-5-|
E|-5-5-5-5-3-3-3-3-6-6-6-6-3-3-3-3-5-5-5-5-3-3-3-3-6-6-6-6-3-3-3-3-|(X2)
   . . . . . . . . . . . . . . . . . . . . . . . . . . . . . . . .


E|--------------------------------------------|
B|--------------------------------------------|
G|--------------------------------------------|
D|--------------------------------------------|
A|-----------------2-3-2-3-2-3-2-3------------|
E|-2-3-2-3-2-3-2-3-----------------2-3-2-3-2~-|(X2)
   . . . . . . . . . . . . . . . . . . . .


SO THIS IS ALL I GOTS RITE NOW SO WHEN I GET MORE, I'LL PUT OUT A FULL VERSION.
Related for Matt Hare - The Meaning Of Life tab