Song name
# A B C D E F G H I J K L M N O P Q R S T U V W X Y Z

Misc Your Songs - Matt Hare - Harmony tab

Guitar-Matt Hare
Drums-Jamie Eriksen/Matt Hare
Bass-Richie Edmonds/Matt Hare



this is only two tracks:

I-Harmony-about 12:00 Standard Tuning-Distortion
II-Interlude-about 00:35 Drop D Tuning-Distortion

                 1.Harmony
Intro
|--------------------------------------------------------------------|
|--------------------------------------------------------------------|
|--------------------------------------------------------------------|
|-----6-6-----3-3-----6-6-----3-3-----6-6-----3-3-----6-6-----3-3----|
|-7-7-4-4-4-4-1-1-7-7-4-4-4-4-1-1-7-7-4-4-4-4-1-1-7-7-4-4-4-4-1-1-5*-|
|-5-5-----2-2-----5-5-----2-2-----5-5-----2-2-----5-5-----2-2--------|

Verse #1
|--------------------------------------------|
|--------------------------------------------|
|--------------------------------------------|
|--------------------------------------------|
|-----------------2-3-2-3-2-3-2-3------------|
|-2-3-2-3-2-3-2-3-----------------2-3-2-3-2~-|(x2)
  . . . . . . . . . . . . . . . . . . . .

pre-chorus
|---------------------------------------------------|
|---------------------------------------------------|
|---------------------------------------------------|
|---------------------1-2-3-4-5-----------1-2-3-4-5-|
|-----------1-2-3-4-5-----------1-2-3-4-5-----------|
|-1-2-3-4-5-----------------------------------------|

chorus
|-----------------------------------------------------------------|
|-----------------------------------------------------------------|
|-----------------------------------------------------------------|
|-----------------------------------------------------------------|
|-7-7-7-7-5-5-5-5-8-8-8-8-5-5-5-5-7-7-7-7-5-5-5-5-8-8-8-8-5-5-5-5-|
|-5-5-5-5-3-3-3-3-6-6-6-6-3-3-3-3-5-5-5-5-3-3-3-3-6-6-6-6-5-5-5-5-|(x2)
  . . . . . . . . . . . . . . . . . . . . . . . . . . . . . . . .

verse#2
|----------------------------------------------------|
|----------------------------------------------------|
|----------------------------------------------------|
|----------------------------------------------------|
|-----------------3-4-3-4-3-4-3-4--------------------|
|-3-4-3-4-3-4-3-4-----------------3-4-3-4-3-4-3-4-3~-|(x2)
  . . . . . . . . . . . . . . . . . . . . . . . .

Fill #1
|----------------------------------------------------------------|
|----------------------------------------------------------------|
|----------------------------------------------------------------|
|----------------------------------------------------------------|
|-5--5-5--6--6-6--4--4-4--3--3-3--7--7-7--6--6-6--8--8-8--9--9-9-|
|-3--3-3--4--4-4--2--2-2--1--1-1--5--5-5--4--4-4--6--6-6--7--7-7-|


Fill #2
|-----------------------------------------------------------------|
|---------6-------------------------------5-----------------------|
|-----7-----7---7---------7-----------5-----5---5---------4-------|
|---7---7-----7-------5-----5---5---5---5-----5-------2-----2---2-|
|-5-----------------5---5-----5---3-----------------2---2-----2---|
|-----------------5-------------------------------2---------------|


Fill #2 cont.
|-----------------------------------------------------------------|
|-----------------------------------------------------------------|
|---------9---------------7---------------5---------------7-------|
|-----7-----7---7-----5-----5---5-----3-----3---3-----7-----7---7-|
|---7---7-----7-----5---5-----5-----3---3-----3-----7---7-----7---|
|-7---------------5---------------5---------------7---------------|


Solo
|--------------20-18b-17-18-17-----------------18-17----------17s13-13-|
|-18b-15-17-18-----------------18-20b-17-18-17-------17-18-20----------|
|----------------------------------------------------------------------|
|----------------------------------------------------------------------|
|----------------------------------------------------------------------|
|----------------------------------------------------------------------|


Solo Cont.
|----------20-18b-17-18-17-----------------18-17----------17s13-13-18s15-|
|-15-17-18-----------------18-20b-17-18-17-------17-18-20----------------|
|------------------------------------------------------------------------|
|------------------------------------------------------------------------|
|------------------------------------------------------------------------|
|------------------------------------------------------------------------|


end solo on:
|-15~-|
|-----|
|-----|
|-----|
|-----|
|-----|


pre-chorus
|---------------------------------------------------|
|---------------------------------------------------|
|---------------------------------------------------|
|---------------------1-2-3-4-5-----------1-2-3-4-5-|
|-----------1-2-3-4-5-----------1-2-3-4-5-----------|
|-1-2-3-4-5-----------------------------------------|


chorus
|-----------------------------------------------------------------|
|-----------------------------------------------------------------|
|-----------------------------------------------------------------|
|-----------------------------------------------------------------|
|-7-7-7-7-5-5-5-5-8-8-8-8-5-5-5-5-7-7-7-7-5-5-5-5-8-8-8-8-5-5-5-5-|
|-5-5-5-5-3-3-3-3-6-6-6-6-3-3-3-3-5-5-5-5-3-3-3-3-6-6-6-6-5-5-5-5-|(x2)
  . . . . . . . . . . . . . . . . . . . . . . . . . . . . . . . .


Verse #1
|--------------------------------------------|
|--------------------------------------------|
|--------------------------------------------|
|--------------------------------------------|
|-----------------2-3-2-3-2-3-2-3------------|
|-2-3-2-3-2-3-2-3-----------------2-3-2-3-2~-|(x2)
  . . . . . . . . . . . . . . . . . . . .


Fill #3
|----------------------------------------|
|-8---8---8h9p8--------------------------|
|---8---8-------8-7-6~-------6-8-6-8-6-8-|(7)=play while 6~ is ringing
|----------------------(7)-8-8-6-8-6-8-6-|
|----------------------------------------|
|----------------------------------------|


Verse #3
|----------------------------------------------------|
|----------------------------------------------------|
|----------------------------------------------------|
|----------------------------------------------------|
|-----------------4-5-4-5-4-5-4-5--------------------|
|-4-5-4-5-4-5-4-5-----------------4-5-4-5-4-5-4-5-4~-|(x2)
  . . . . . . . . . . . . . . . . . . . . . . . .


pre-chorus
|---------------------------------------------------|
|---------------------------------------------------|
|---------------------------------------------------|
|---------------------1-2-3-4-5-----------1-2-3-4-5-|
|-----------1-2-3-4-5-----------1-2-3-4-5-----------|
|-1-2-3-4-5-----------------------------------------|


chorus
|-----------------------------------------------------------------|
|-----------------------------------------------------------------|
|-----------------------------------------------------------------|
|-----------------------------------------------------------------|
|-7-7-7-7-5-5-5-5-8-8-8-8-5-5-5-5-7-7-7-7-5-5-5-5-8-8-8-8-5-5-5-5-|
|-5-5-5-5-3-3-3-3-6-6-6-6-3-3-3-3-5-5-5-5-3-3-3-3-6-6-6-6-5-5-5-5-|(x2)
  . . . . . . . . . . . . . . . . . . . . . . . . . . . . . . . .


Fill #4
|--------------------------------------|
|-------20----------20----------20-----|
|-18-19----19-18-19----19-18-19----19~-|
|--------------------------------------|
|--------------------------------------|
|--------------------------------------|


Verse #4
|------------------------------------------|
|------------------------------------------|
|------------------------------------------|
|------------------------------------------|
|-7-7-7-7-----7-7-7-7-----7-7-7-7----------|
|-5-5-5-5-5h7-5-5-5-5-5h7-5-5-5-5-5h7s9s11-|


Pre-chorus #2
|---------------------------------------------------------|
|---------------------------------------------------------|
|---------------------------------------------------------|
|---------------------------------------------------------|
|---------------------------------------------------------|
|-4-6-4-5-4-6-4-5-4-6-4-5-4-6-4-5-4-6-4-5-4-6-4-5-4-6-4-5-|


Chorus #2
|-----------------------------------------------------------------|
|-----------------------------------------------------------------|
|-----------------------------------------------------------------|
|-7-7-7-7-7-7-7-7-9-9-9-9-9-9-9-9-7-7-7-7-7-7-7-7-9-9-9-9-9-9-9-9-|
|-7-7-7-7-7-7-7-7-9-9-9-9-9-9-9-9-7-7-7-7-7-7-7-7-9-9-9-9-9-9-9-9-|
|-----------------------------------------------------------------|


Verse #5
|--------------------------------------------------------------------|
|--------------------------------------------------------------------|
|--------------------------------------------------------------------|
|-----------------------------------------------------------------0~-|
|-6-6-6-6-8-8-8-8-4-4-4-4-2-2-2-2-6-6-6-6-8-8-8-8-4-4-4-4-2-2-2-2-2~-|
|-4-4-4-4-6-6-6-6-2-2-2-2-0-0-0-0-4-4-4-4-6-6-6-6-2-2-2-2-0-0-0-0-3~-|



Fill #5
|---------------------------------|
|---------------------------------|
|---------------------------------|
|---------------------------------|
|-2-------2-------2-------2-------|
|---2-3-0---2-3-0---2-3-0---2-3-0-|


Fill #5 cont.
|-----------------------------------------------|
|-----------------------------------------------|
|-----------------------------------------------|
|-----------------------------------------------|
|-----------------------------------------------|
|-00000000-33333333-2-2-2-00000000-33333333-555-|


Fill #5 cont.
|---------------------------------|
|---------------------------------|
|---------------------------------|
|---------------------------------|
|-2-------2-------2-------2-------|
|---2-3-0---2-3-0---2-3-0---2-3-0-|


Fill #5 cont.
|-----------------------------------------------|
|-----------------------------------------------|
|-----------------------------------------------|
|-----------------------------------------------|
|-----------------------------------------------|
|-00000000-33333333-2-2-2-00000000-33333333-555-|(x2)


Fill #5 cont.
|------------------------------------------|
|------------------------------------------|
|------------------------------------------|
|------------------------------------------|
|-2-------2--------2~-0~-------2~-4~-------|
|---2-3-0---2-3-0~-------0~-3~-------0~-3~-|


Fill #5 cont.
|---------------------------------|
|---------------------------------|
|---------------------------------|
|---------------------------------|
|-2-------2-------2-------2-------|
|---2-3-0---2-3-0---2-3-0---2-3-0-|


Fill #5 cont.
|-----------------------------------------------|
|-----------------------------------------------|
|-----------------------------------------------|
|-----------------------------------------------|
|-----------------------------------------------|
|-00000000-33333333-2-2-2-00000000-33333333-555-|(x4)


Fill #5 cont.
|-----------|
|-----------|
|-----------|
|-----------|
|-2---------|
|---0h2s3-0-|(x6)


Fill #6
|-----------------------------------------|
|-----------------------------------------|
|-----------------------------------------|
|-----------------------------------------|
|-----------------------------------------|
|-55555555555555555555-000000000000000000-|(x8)


Fill #6 Cont.
|------------------------------|
|------------------------------|
|------------------------------|
|------------------------------|
|------------------------------|
|-5~-5~-5~-5~-0000000000000000-|


Fill #6 Cont.
|----------------------------------------------------|
|----------------------------------------------------|
|----------------------------------------------------|
|----------------------------------------------------|
|----------------------------------------------------|
|-5-3-5-7-5-3-0-3-5-3-5-7-5-3-0-3-000000000000000000-|(x2)


Fill #6 Cont.
|------------------------------|
|------------------------------|
|------------------------------|
|------------------------------|
|------------------------------|
|-5~-5~-5~-5~-0000000000000000-|


Fill #6 Cont.
|-------------------------------------------|
|-------------------------------------------|
|-------------------------------------------|
|-------------------------------------------|
|-------------------------------------------|
|-55555555555555555555-00000000000000000000-|


Fill #6 Cont.
|----------------------------------------------------|
|----------------------------------------------------|
|----------------------------------------------------|
|----------------------------------------------------|
|----------------------------------------------------|
|-5-3-5-7-5-3-0-3-5-3-5-7-5-3-0-3-000000000000000000-|(x2)



Fill #6 Cont.
|--------------------------------------------|
|--------------------------------------------|
|--------------------------------------------|
|--------------------------------------------|
|--------------------------------------------|
|-5-77-5-77-575-5-77-5-77-000000000000000000-|(x4)


Fill #6 Cont.
|-----------------------------|
|-----------------------------|
|-----------------------------|
|-----------------------------|
|-----------------------------|
|-4~-5~-5~-000000000000000000-|


Fill #6 Cont.
|------------------------------|
|------------------------------|
|------------------------------|
|------------------------------|
|------------------------------|
|-5~-5~-5~-5~-0000000000000000-|(x2)



Fill #6 Cont.
|----------------------------------------------------|
|----------------------------------------------------|
|----------------------------------------------------|
|----------------------------------------------------|
|----------------------------------------------------|
|-5-3-5-7-5-3-0-3-5-3-5-7-5-3-0-3-000000000000000000-|(x4)


Fill #6 Cont.
|--------------------------------|
|--------------------------------|
|--------------------------------|
|--------------------------------|
|--------------------------------|
|-000000000000000000000000000-0~-|


Verse #1
|--------------------------------------------|
|--------------------------------------------|
|--------------------------------------------|
|--------------------------------------------|
|-----------------2-3-2-3-2-3-2-3------------|
|-2-3-2-3-2-3-2-3-----------------2-3-2-3-2~-|(x2)
  . . . . . . . . . . . . . . . . . . . .


pre-chorus
|---------------------------------------------------|
|---------------------------------------------------|
|---------------------------------------------------|
|---------------------1-2-3-4-5-----------1-2-3-4-5-|
|-----------1-2-3-4-5-----------1-2-3-4-5-----------|
|-1-2-3-4-5-----------------------------------------|


chorus
|-----------------------------------------------------------------|
|-----------------------------------------------------------------|
|-----------------------------------------------------------------|
|-----------------------------------------------------------------|
|-7-7-7-7-5-5-5-5-8-8-8-8-5-5-5-5-7-7-7-7-5-5-5-5-8-8-8-8-5-5-5-5-|
|-5-5-5-5-3-3-3-3-6-6-6-6-3-3-3-3-5-5-5-5-3-3-3-3-6-6-6-6-5-5-5-5-|(x2)
  . . . . . . . . . . . . . . . . . . . . . . . . . . . . . . . .


Chorus #2
|-----------------------------------------------------------------|
|-----------------------------------------------------------------|
|-----------------------------------------------------------------|
|-7-7-7-7-7-7-7-7-9-9-9-9-9-9-9-9-7-7-7-7-7-7-7-7-9-9-9-9-9-9-9-9-|
|-7-7-7-7-7-7-7-7-9-9-9-9-9-9-9-9-7-7-7-7-7-7-7-7-9-9-9-9-9-9-9-9-|
|-----------------------------------------------------------------|


outro
|---------------------------------------------------5-4-3-2-1-|
|-----------------------------------------5-4-3-2-1-----------|
|-------------------------------5-4-3-2-1---------------------|
|---------------------5-4-3-2-1-------------------------------|
|-----------5-4-3-2-1-----------------------------------------|
|-5-4-3-2-1---------------------------------------------------|


outro cont.
|---------------------------------------------------1-2-3-4-5-|
|-----------------------------------------1-2-3-4-5-----------|
|-------------------------------1-2-3-4-5---------------------|
|---------------------1-2-3-4-5-------------------------------|
|-----------1-2-3-4-5-----------------------------------------|
|-1-2-3-4-5---------------------------------------------------|


outro cont.
|---------------------------------------------------5-4-3-2-1-1~-|
|-----------------------------------------1-2-3-4-5--------------|
|-------------------------------5-4-3-2-1------------------------|
|---------------------1-2-3-4-5----------------------------------|
|-----------5-4-3-2-1--------------------------------------------|
|-1-2-3-4-5------------------------------------------------------|





                         2. Interlude


Intro
|-----------------------------------|
|-----------------------------------|
|-------------------------7*--------|
|-----0-----0-----0----5*----7*-----|
|---3-----3-----3---5*----------12*-|
|-3-----3-----3---------------------|


verse #1
|----------------------------------------------|
|----------------------------------------------|
|----------------------------------------------|
|----------------------------------------------|
|-444444-888888-000000-444444-888888-000000-0~-|
|-444444-888888-000000-444444-888888-000000-0~-|


outro
|-----------|
|-----------|
|-----------|
|-5~--0~----|
|-5~--0~----|
|-5~--0~-0w-|
Tap to rate this tab
# A B C D E F G H I J K L M N O P Q R S T U V W X Y Z