Song name
# A B C D E F G H I J K L M N O P Q R S T U V W X Y Z

Misc Your Songs - Matt Hare - Goodbye Ill See You Again tab

|----------------------------------|
|----------------------------------|
|----------------------------------|
|------------------------------.---|
|--7--7--7-5--5--5-3---3-3-3-3/5-3-|
|--5--5--5-3--3--3-1---1-1-1-1/3-1-|
(x4 the . above the 53 power chord means staccatto and same for all . above notes)



|----------------------------------|
|----------------------------------|
|----------------------------------|
|----------------------------------|
|------------------------------.---|
|--5--5--5-3--3--3-1---1-1-1-1/3-1-|(x4)




|--------------20-18b-17-18-17-----------------18-17----------17s13-13----|
|-18b-15-17-18-----------------18-20b-17-18-17-------17-18-20----------15-|
|-------------------------------------------------------------------------|
|-------------------------------------------------------------------------|
|-------------------------------------------------------------------------|
|-------------------------------------------------------------------------|




|-------20-18b-17-18-17-----------------18-17----------17s13-13-18s15-15-|
|-17-18-----------------18-20b-17-18-17-------17-18-20-------------------|
|------------------------------------------------------------------------|
|------------------------------------------------------------------------|
|------------------------------------------------------------------------|
|------------------------------------------------------------------------|




|----------18-17~-|
|-17-18-17--------|
|-----------------|
|-----------------|
|-----------------|
|-----------------|




|----------------------------------|
|----------------------------------|
|----------------------------------|
|----------------------------------|
|------------------------------.---|
|--5--5--5-3--3--3-1---1-1-1-1/3-1-|(x4)
Tap to rate this tab
 
# A B C D E F G H I J K L M N O P Q R S T U V W X Y Z