Song name
# A B C D E F G H I J K L M N O P Q R S T U V W X Y Z

Misc Your Songs - Chris Pontius - French Song I Let My Moustache tab

  French Song (I let my moustache)

  Arranged by Chris Pontius

  Complete correct tab by Christian Parker (xchen)

  Email: christianparker at gmail.com
  AIM: campkillfan2k



  Use the tuning that suits you the most.

   
  
  The only place to find this is the MTV Cribs Jackass episode.
  I am going to make it available in mp3 format so email requests
  with subject "I let my moustached do the talking" and I'll send
  it to you. This is also in an episode from Wildboyz.


  |-----------------------------------------------------------------------| 
  |-----------------------------------------------------------------------| 
  |-----------------------------------------------------------------------| 
  |-12--12-12--12--12-12--7--7-7--7--7-7--5--5-5--5--5-5--5-5-5-5--5--5-5-| 
  |-12--12-12--12--12-12--7--7-7--7--7-7--5--5-5--5--5-5--5-5-5-5--5--5-5-| 
  |-10--10-10--10--10-10--7--7-7--7--7-7--5--5-5--5--5-5--5-5-5-5--5--5-5-| 

I let my moustache do the talking, oooooooohhh-oooooooooooooooooh-oooooooh

  |------------------------------------------------------------| 
  |------------------------------------------------------------| 
  |------------------------------------------------------------| 
  |-12--12-12--12--12-12--7--7-7--7--7-7--5--5-5--5--5-5--5-12-| 
  |-12--12-12--12--12-12--7--7-7--7--7-7--5--5-5--5--5-5--5-12-| 
  |-10--10-10--10--10-10--7--7-7--7--7-7--5--5-5--5--5-5--5-12-|

  I let my moustache do the talking,ooooooooh-ooooooooooh  oooh

  |---------------------------------------------------------| 
  |---------------------------------------------------------| 
  |---------------------------------------------------------| 
  |-12--12-12--12--12-12--7--7-7--7--7-7--5--5-5--5--5-5--5-| 
  |-12--12-12--12--12-12--7--7-7--7--7-7--5--5-5--5--5-5--5-| 
  |-10--10-10--10--10-10--7--7-7--7--7-7--5--5-5--5--5-5--5-|

    I let my moustache do the talking,ooooooooh-ooooooooooh

Tap to rate this tab
# A B C D E F G H I J K L M N O P Q R S T U V W X Y Z