Song name
# A B C D E F G H I J K L M N O P Q R S T U V W X Y Z

Misc Your Songs - Matt Hare - Clean tab

Matt-Standard-clean


Intro(strumming):
|--0--0--0--0--|
|--0--0--0--0--|
|--0--0--0--0--|
|--0--0--0--0--|
|--7--9--5--3--|
|--5--7--3--1--|(x4)


Verse(strumming Chords)
|-1---0---0---0---|
|-0---2---0---0---|
|-0---2---1---1---|
|-0---2---2---2---|
|-2---0---2---2---|
|-3-------0---0---|(x4)

******Play Chorus[same as intro]******

******Play Verse******


Solo:
|----------------5v----------------------------------|
|------9v------7---------9v------7--------9v---------|
|-10-8----8-6v------10-8----8-6v-----10-8------------|
|--------------------------------------------3-4-----|
|------------------------------------------------4-3-|
|----------------------------------0-----------------|


******Play Outro{same as chorus/intro)******(slow Down as going along)****
Tap to rate this tab
# A B C D E F G H I J K L M N O P Q R S T U V W X Y Z