Song name
# A B C D E F G H I J K L M N O P Q R S T U V W X Y Z

Misc Your Songs - Jon Kaarbo - A Song For Love tab

This is the solo for the refrain on "A song for love", which is composed by Jon Kaarbo.


Rhythm guitar plays bar chords.

C

-8-8-7-8------8-8-7-8-----|
---------8------------8---|
-----------9------------9-|
--------------------------|
--------------------------|
--------------------------|


Fmaj7

-8-8-7-8------8-8-7-8-----|
---------8------------8---|
-----------9------------9-|
--------------------------|
--------------------------|
--------------------------|

C                         F                        G

-8-8-7-8------8-8-7-8------------------------------------|
---------8------------8----------------------------------|
-----------9------------9-10-10-10-9-10-9-10-10-10-12-12-|
---------------------------------------------------------|
---------------------------------------------------------|
---------------------------------------------------------|


Tabbed and composed by the young musician Jon Kaarbo from Norway.

Official website: www.jonkaarbo.blogspot.com
E-mail: jonkaarbo@gmail.com
Tap to rate this tab
# A B C D E F G H I J K L M N O P Q R S T U V W X Y Z