Song name
# A B C D E F G H I J K L M N O P Q R S T U V W X Y Z

Misc Your Songs - Ben Stewart - Heaven tab

Well hey im Ben, this is the first song I wrote and it's
an offering to my king, Jesus.


e|-------3----------3----------3------------------------|
b|---------3----------3----------3--------oo------------|
g|----0----------0----------0---------------------------|
d|------------------------------------------------------|
a|-0----------2----------3----------------oo------------|
E|------------------------------------------------------|



e|-----3---3------3---3------3--3-----2--3--------------|
b|------3----------3---3------3--------3--3----oo-------|
g|----------------------------------2-------------------|
d|---2----------2-----------------0---------------------|
a|-2----------3------------2-------------------oo-------|
E|-----------------------3------------------------------|

Well there it is, for more about me or if you want to talk
about the tab or Jesus then just feel free to email me at
Bennyboy599@hotmail.com
Tap to rate this tab
 
# A B C D E F G H I J K L M N O P Q R S T U V W X Y Z