Song name
# A B C D E F G H I J K L M N O P Q R S T U V W X Y Z

Misc Your Songs - Rune Finne - Chill tab

Highlighted       Show chord diagrams
-------------------
 |Made by Rune Finne.|
  -------------------
  ---------------------
 |Hope you'll enjoy it!|
 |Rfinne_@hotmail.com  |
  ---------------------      


Intro:

   Am     C         F           D
:|-----------------------------------2----|:
:|-----1-------1---------1-----------3----|:
:|-----2-------0---------2--------2-------|:
:|---2------2-------------------0---------|:
:|-0------3-----------3-------------------|:
:|------------------1---------------------|: x2


Am        C
round and round
F          dsus2
It makes me sick
Am        C
round and round
F                            Am
It makes me wanna scream out loud
C
Loud
F                     
Turn up the volume and

dsus2 
Chill
G      Am 
Chiiiiiiil
dsus2   G       Am
Chill.. Chiiiiiiil

Am             C
She said I was missed
F    dsus2
So I fell
Am             C
She said I was missed
F                      Am
Then I said that I was pissed
C
pissed
F                       dsus2
I could make a list and chill

dsus2 
Chill
G      Am 
Chiiiiiiil
dsus2   G       Am
Chill.. Chiiiiiiil

C           G
Finding the truth
        Am
was the easy part
C       G
Now I'm heading
     F
to a brand new start X2

Am        C
round and round
F          dsus2
It makes me sick
Am        C
round and round
F                            Am
It makes me wanna scream out loud
C
Loud
F                     
Turn up the volume and


dsus2 
Chill
G      Am 
Chiiiiiiil
dsus2   G       Am
Chill.. Chiiiiiiil
dsus2 
Chill
G      Am 
Chiiiiiiil
dsus2   G       Am
Chill.. Chiiiiiiil

   Am     C         F           D
:|-----------------------------------2----|:
:|-----1-------1---------1-----------3----|:
:|-----2-------0---------2--------2-------|:
:|---2------2-------------------0---------|:
:|-0------3-----------3-------------------|:
:|------------------1---------------------|: (slow)
Tap to rate this tab
 
# A B C D E F G H I J K L M N O P Q R S T U V W X Y Z