Guitaretab - guitar tabs
Song name
# A B C D E F G H I J K L M N O P Q R S T U V W X Y Z

Misc Your Songs - Greg B - Solo tab

Hello folks

my name is greg and this is my first tab

its a solo i made up..hope you like it

-----------------------------------------------------------------------|
-----------------------------------------------------------------------|
----13B-11-------11h13-11h13-11----11-13--13B--11-13-------------------|
-----------13-13----------------13------------------13-11--------------|
---------------------------------------------------------13-11---------|
---------------------------------------------------------------14-11---|

---------------------------------------------------------------- ---------|
------------------------------------19--19-------------------12- -----12--|
------------------13B-11---11-13/20---20--20/-13B-11----11-13--- 11h13----|rpt
-------------11b--------13---------------------------13--------- -------1-|0X
-------11-13---------------------------------------------------- ---------|
-11-14---------------------------------------------------------- ---------|

------------------------------------------------------------------------|
---12h15B--15B-15p12----------------------------------------------------|
---------------------14p12-----14-13-12-----14-13-12-------14-13-12-----|
---------------------------14B----------14B----------14b12----------14--|B
------------------------------------------------------------------------|
------------------------------------------------------------------------|
[ Tab from: http://www.guitaretab.com/m/misc-your-songs/75087.html ]
--------------------------------------------------------------------------|
--------------------------------15-15-15-15-15-15-------------15p13-15p13-|
---------------14B---------14B----------------------------14B-------------|
---12-12-13-14----12-13-14-----------------------12-13-14-----------------|
--------------------------------------------------------------------------|
--------------------------------------------------------------------------|

----------------------------------------17b-17b-17b--------------------|
--15B--15p13-15p13-15B-15p13-15p13-15B----------------repeat-----------|
--------------------------------------------------------2x-------------|
-----------------------------------------------------------------------|
-----------------------------------------------------------------------|
-----------------------------------------------------------------------|

--15-12------------------15-12------------------15-12-------------------|
--------15-12------------------15-12------------------15-12-------------|
--------------14-12------------------14-12------------------14B-12------|B(hold)
--------------------14b--------------------14b--------------------------|
------------------------------------------------------------------------|
------------------------------------------------------------------------|

------------------3----------------------------------------------------|
------------------3----------------------------------------------------|
------------------3----------------------------------------------------|
--------14B-------5----------------------------------------------------|
------------------5----------------------------------------------------|
------------------3----------------------------------------------------|

I'd like to add that I am 14 years old and have only been playing guitar for 4 
myself how to play..not too shabby

please rate
peace
Related for Greg B - Solo tab
×
Greg B - Solo