Song name
# A B C D E F G H I J K L M N O P Q R S T U V W X Y Z

Misc Your Songs - Matt Schultz - Cocaine Blues tab

Album: Little Britan
Artist: Matt Schultz
Song: Cocaine Blues

Copyroght 2006

This is a song on my album "Little Britan." Its a cool little tune. 
I'mn actually tabbing it for the first time. Hope you like it.

Guitars:
Guitar I / Matt / Rythm / Light Overdrive
Guitar II / Matt / Lead / Dist. w/ Overdrive

Tempo: 66

Guitar I:
Let Ring                  v let ring
|---0------------|---0----0-------------------------------------|
|---8------------|---8----8-------------------------------------|
|---7------------|---7----7-------------------------------------|
|---6------------|---6----6-------------------------------------|
|---7------------|---7----7-------------------------------------|
|-0-0------------|-0-0----0-------------------------------------|

Guitar II
     v let ring
|----------------|------------------------)--15------------------|
|----------------|-------------12-15-12-15--------15-12---)------|
|----------------|---------/12--------------------------14-12\---|
|----------------|-----------------------------------------------|
|--)-------------|-----------------------------------------------|
|-3-0------------|-----------------------------------------------|




Guitar I
    v let ring                        v let ring
|---0------------------0--------------0------------------------------|
|--10-----------------10----------10/-5------------------------------|
|--12-----12-------12-12----------12/-7------------------------------|
|--11--------11----11-11----------11/-6------------------------------|
|--12--12-------12-12-12----------12/-7------------------------------|
|-0-0---------------------------------0------------------------------|

Guitar II
                          )                    )
|-----------------------20---------)--)------15-12-----------)------|
|--------------------------20-17-20-20-------------15p12h15-15------|
|-------------------------------------------------------------------|
|-------------------------------------------------------------------|
|-------------------------------------------------------------------|
|-------------------------------------------------------------------|



Guitar I
      v let ring                          v let ring   
|-0---0-------------0--0----------------0-0--------------------0-0--0----|
|-5/-12------------12\10---------------10\5--------------------5-5-12----|
|-7/-14------------14\12---------------12\7--------------------7-7-14----|
|-6/-13------------13\11---------------11\6--------------------6-6-13----|
|-7/-14------------14\12---------------12\7--------------------7-7-14----|
|-0---0-------------0--0----------------0-0--------------------0-0--0----|

Guitar II
           )               )
|--------10-7---)---------8--5--)---------------------------------------|
|-------------10---------------8----------5---------)-------------------|
|-------------------------------------------7-5----7--5-----------------|
|-------------------------------------------------------7p5h7-----------|
|-----------------------------------------------------------------------|
|-----------------------------------------------------------------------|

Okay thats the verse. Repeat the entire above for EVERY VERSE!
 
This is how it's set up

intro(above)
Verse(above)
" " " " " "
Solo
Verse(above)
" " " " " "
solo
Outro(above)

Heres the first two verses:

Verse 1
--------------------------------------+
well, baby, I got the cocaine blues   |
yeah baby   I got the concaine blues  |
                                      |
I don't wanna leave ya girl           |
But I got to go                       |
--------------------------------------+

Verse 2

--------------------------------------+
Well, yeah the cocaine its runnin low |
Yeah that cocaine    its getin low    |
                                      |
I don't wannna leave ya girl          |
But I got to go                       |                           
--------------------------------------+


The solo is arrenged in parts. Each part is a rythm bar.


Guitar solo:
Guitar II

|------3/5-----------------------|
|---------5p3p0------------------|
|---------------2-0--------------|
|-------------------2-0----------| 
|--)--------------------2~~~~~~~-|
|-3--0---------------------------|

Guitar II
     )
|---8-5----------8--------------|
|------8-5------)8--------------|
|----------7p5h7-----7r-5~~~~~~~| 
|-------------------------------|
|-------------------------------|
|-------------------------------|
|-/5----------------------------|


Guitar II
            )                )
|-12-15-12-15--12~------17-17--|
|-----------------15/17--------|
|------------------------------|
|------------------------------|
|------------------------------|
|------------------------------|


Guitar II
   )       v
|-8-5-----)---------------------|
|----8p5h8--5-------------------|
|-------------7-5---------------|
|----------------7-5-----)------|
|-------------------7-5-7-------|
|---------------------------8-5~|
           ^

Thats the easy solo.

Heres the next verses.


Verse 3
---------------------------------------------------+
Well the cocaine hurts ya but i really don't care  |
Cause it Numbs your blues    til they go away      |
Mmmhhh                                             |
I don't wannna leave ya girl                       |
But I got to go                                    |
---------------------------------------------------+

Verse 4
--------------------------------------+
Oh baby  I love you soo much    yeah  |
But I can't stay with ya no more      |
yeah                                  |
Cause I got to go baby                |
Down to chicago                       |
--------------------------------------+

This solo is very fast & you use hyper speed picking at parts.
So, I'll tell ya where to play fast.

Guitar solo:


Guitar II (w/ twah fuzz)

|3-0-------------------|
|---3-0------)---------|
|-------2p0h2----------|
|----------------------|
|----------------------|
|----------------------|


Guitar II(w/twah fuzz)(double speed)
      )
|12-15------12/15-17--15-12~~~-|
|-----12----12/15-17--15-12~~~-|
|-------15---------------------|
|------------------------------|
|------------------------------|
|------------------------------|

Guitar II(w/fuzz)(Solo Tempo:132)
                               )
|15=12------------------------15---------|
|-----15p12h15p12h15p12h15p12h15--12---)-|
|------------------------------------14--|
|----------------------------------------|
|----------------------------------------|
|----------------------------------------|


Guitar II(solo tempo:66)
   )       
|-8-5-----)---------------------|
|----8p5h8--5-------------------|
|-------------7-5---------------|
|----------------7-5-----)------|
|-------------------7-5-7-------|
|---------------------------8-5~|
           

Thats it. O, yeah, the outro just play the top part once and end like this:

guitar II

|-15-12--------------------------|
|------15-12---------------------|
|-----------14-12----------------|
|----------------14-12-----)-----|
|---------------------14-12--14--|
|----------------------------12--|

Enjoy! 
PM me if you like it



Tap to rate this tab
 
# A B C D E F G H I J K L M N O P Q R S T U V W X Y Z