Song name
# A B C D E F G H I J K L M N O P Q R S T U V W X Y Z

Misc Your Songs - Matt Schultz - Under A Rock tab

Under A rock
Little Britian
Matt Schultz

This is Something I like just made up.
No vocals.

Guitars:

Guitar I / Acoustic 



Guitar I

|---3-----------------|
|----0---0h1p0--------|
|--------------1p0----|
|---------------------|
|---------------------|
|-3-------------------|


Guitar I

|---8---------------|
|-----5--5h6p5------|
|--------------6p5--|
|-------------------|
|-------------------|
|-8-----------------|


Guitar I

|---3-----------------|
|----0---0h1p0--------|
|--------------1p0----|
|---------------------|
|---------------------|
|-3-------------------|


Guitar I

|---10----------------|
|------7--7h8p7-------|
|---------------8p7---|
|---------------------|
|---------------------|
|-10------------------|



Thats it. Its a little spanish, but thats okay. PM me if you like it

Tap to rate this tab
# A B C D E F G H I J K L M N O P Q R S T U V W X Y Z