Song name
# A B C D E F G H I J K L M N O P Q R S T U V W X Y Z

Misc Your Songs - Matias Espina - 10 Million Years Ago tab

Help us improve GuitareTab! Take a short survey!
-------------------------------------------------------------------------------
		   10 Million Years Ago – Matias Espina
-------------------------------------------------------------------------------
Tabbed by: Matias Espina
Email: matias_espina@hotmail.com

 I composed this song in Guitar Pro, and I upload the Guitar Pro Tab, and a Power tab
to Ultimate – Guitar.com, the tab has more than one instrument, but if you want to listen
full tab, you must download the Guitar Pro Tab of “10 Millions Years Ago”.
 The arpeggio of the song is composed of Quavers (Corcheas) the only moment it changes
in the Hammer on and Pull off of the Intro, wich are Semi-Quavers (Semi-Corcheas).

Q = 109

Intro:
                                              Semi-Quavers
   Am            C             G             D     | |
e|-------0-----|-------0-----|-------3-----|-------2h3p2---||
B|-----1---1---|-----1---1---|-----0---0---|-----3-------3-||
G|---2-------2-|---0-------0-|---0-------0-|---2-----------|| x5
D|-------------|-------------|-------------|-0-------------||
A|-0-----------|-3-----------|-------------|---------------||
E|-------------|-------------|-3-----------|---------------||


Verse:
   F             G             Am            Am
e|-------------|-------------|-------------|---------------||
B|-------1-----|-------------|-------1-----|-------1-------||
G|-----2---2---|-------4-----|-----2---2---|-----2---2-----||
D|---3-------3-|-----5---5---|---2-------2-|---2-------2---||
A|-------------|---5-------5-|-0-----------|-0-------------||
E|-1-----------|-3-----------|-------------|---------------||

   F             G             Am            Am
e|-------------|-------------|-------------|---------------||
B|-------------|-------------|-------1-----|-------1-------||
G|-------2-----|-------4-----|-----2---2---|-----2---2-----||
D|-----3---3---|-----5---5---|---2-------2-|---2-------2---||
A|---3-------3-|---5-------5-|-0-----------|-0-------------||
E|-1-----------|-3-----------|-------------|---------------||


Bridge:
   Am            Am
e|-------------|---------------||
B|-------1-----|-------1-------||
G|-----2---2---|-----2---2-----||
D|---2-------2-|---2-------2---||
A|-0-----------|-0-------------||
E|-------------|---------------||


Verse 2:
   C            (?)            Am            Am
e|-------0-----|-------------|-------------|---------------||
B|-----1---1---|-----1-3-1---|-------1-----|-------1-------||
G|---0-------0-|---0-------0-|-----2---2---|-----2---2-----||x2
D|-------------|-------------|---2-------2-|---2-------2---||
A|-3-----------|-2-----------|-0-----------|-0-------------||
E|-------------|-------------|-------------|---------------||


Pre-Outro:
   D             F             Am            Am
e|-------2-----|-------1-----|-------------|---------------||
B|-----3---3---|-----1---1---|-------1-----|-------1-------||
G|---2-------2-|---2-------2-|-----2---2---|-----2---2-----||x2
D|-0-----------|-------------|---2-------2-|---2-------2---||
A|-------------|-3-----------|-0-----------|-0-------------||
E|-------------|-------------|-------------|---------------||


Outro: (With chords accompaniment of an other guitar)
   D             F             Am            Am
e|-------2-----|-------1-----|-------0-----|-------0-------||
B|-----3---3---|-----1---1---|-----1---1---|-----1---1-----||
G|---2-------2-|---2-------2-|---2-------2-|---2-------2---||x4
D|-0-----------|-------------|-------------|---------------||
A|-------------|-3-----------|-0-----------|-0-------------||
E|-------------|-------------|-------------|---------------||

                     (Ends in Am)


Guitar#2 or Organ:
In the Outro you can play the chords like this:
(All Quavers)

e|-2-----2-----|-1-----1-----|-0-----0-----|-0-----0-------||
B|-3---3-3---3-|-1-----1-----|-1-----1-----|-1-----1-------||
G|-2-2-2-2-2-2-|-2-2-2-2-2-3-|-2---2-2---2-|-2---2-2---2---||x4
D|-0-0-0-0-0-0-|-3-3-3-3-3-3-|-2-2-2-2-2-2-|-2-2-2-2-2-2---||
A|-------------|---3-3---3-3-|---0-0---0-0-|---0-0-0-0-0---||
E|-------------|-------------|-------------|---------------||


I think that’s all.
This song was fully composed by me.
Please rate.
Related for Matias Espina - 10 Million Years Ago tab