Song name
# A B C D E F G H I J K L M N O P Q R S T U V W X Y Z

Misc Your Songs - David - Killing Me tab

Artist: David
Song: Killing Me

I combined a few of Metallica's sounds with Good Bye Blue Sky to make this.

x=Palm mute

Intro-Clean

|--------------------------|
|--------------------------|
|-----0-------------0------|
|---4---4---4-----4---4---4|
|---------2-------------2--|
|-3-------------3----------|

|--------------------------|
|--------------------------|
|-----0-------------0------|
|---4---4---4-----4---4---4|
|---------2-------------2--|
|-0-------------0----------|

|--------------------------|
|--------------------------|
|-----0-------------0------|
|---4---4---4-----4---4---4|
|---------2-------------2--|
|-2-------------2----------|

|--------------------------|
|--------------------------|
|-----0-------------0------|
|---4---4---4-----4---4---4|
|---------0-------------0--|
|-3-------------3----------|

|--------------------------|
|--------------------------|
|-----0-------------0------|
|---2---2---2-----2---2---2|
|---------2-------------2--|
|-3-------------3----------|

|--------------------------|
|--------------------------|
|-----0-------------0------|
|---4---4---4-----4---4---4|
|---------2-------------2--|
|-3-------------3----------|

Verse-Distortion

|--------------------------|
|--------------------------|
|-----0-------------0------|
|---4---4---4-----4---4---4|
|---------2-------------2--|
|-3-------------3----------|

|--------------------------|
|--------------------------|
|-----0-------------0------|
|---4---4---4-----4---4---4|
|---------2-------------2--|
|-0-------------0----------|

|--------------------------|
|--------------------------|
|-----0-------------0------|
|---4---4---4-----4---4---4|
|---------2-------------2--|
|-2-------------2----------|

|--------------------------|
|--------------------------|
|-----0-------------0------|
|---4---4---4-----4---4---4|
|---------0-------------0--|
|-3-------------3----------|

|--------------------------|
|--------------------------|
|-----0-------------0------|
|---2---2---2-----2---2---2|
|---------2-------------2--|
|-3-------------3----------|

|--------------------------|
|--------------------------|
|-----0-------------0------|
|---4---4---4-----4---4---4|
|---------2-------------2--|
|-3-------------3----------|

Chorus-Distortion (This is also the chorus from One)

|--------------------------------------|
|--------------------------------------|
|--------------------------------------|
|-----2-4-2-------4-2--4-6-4-2---------|
|-5---0-2-0-5--4--2-0--2-4-2-0--3~-4~--|
|-3---------3--2-----------------------|

Bridge-Distortion

|-----------------------|
|--2--2--2-2p0----------|
|--2--2--2-----2p0------|
|--2--2--2---------2p0--|
|--0--0--0--------------|
|-----------------------|
 
Outro-Distortion

|----------------------------------------------------|
|----------------------------------------------------|
|--------------------------------------5--4--2-------|
|0-----25-----25-----25-----25-----25--5--4--2--2----|
|0-----25-----25-----25-----25-----25--3--2--0--2----|
|0000000-00000--00000--00000--00000-------------0----|(Let ring)
  xxxxx  xxxxx  xxxxx  xxxxx  xxxxx


Order

Intro
Verse 
Verse 
Chorus
Verse
verse
Chorus
Chorus
Verse
Bridge
Outro

Hope you like the song.






Tap to rate this tab
 
# A B C D E F G H I J K L M N O P Q R S T U V W X Y Z