Guitaretab - guitar tabs
Song name
# A B C D E F G H I J K L M N O P Q R S T U V W X Y Z

Misc Your Songs - Noah Haines - Over My Head tab

this is a cool song i made up on my own standard tuning order of song at bottom

intro/verse   fill 1                      fill 2
e------------|--12-11-10-----------------|-----------------|
b-----8-8-8-8|-----------12-11-10--------|-----------------|
g-----7-7-7-7|--------------------12-11-9|----3p0----------|
d--2--6-6-6-6|2--------------------------|--2-----3p0------|
a--2--7-7-7-7|2--------------------------|--2---------3-1--|
e--0---------|0--------------------------|--0-------------3|
[ Tab from: http://www.guitaretab.com/m/misc-your-songs/86651.html ]
fill 3             chorus
e--------------------|-------------------|
b--------------------|--8-8--8-8---------|
g--------------------|--7-7--7-7---------|
d-2------------------|--6-6--6-6-2-2--2-2|
a-2-5-7---5----------|--7-7--7-7-2-2--2-2|
e-0-------7---7-5-3-0|-----------0-0--0-0|

solo

e--12-12-10-12-10----10-------------------------------------------------------|
b-----------------12----12-10--------------8-6-5-8-10-12-12-15-17-17-15-------|
g-----------------------------12-9--9^-9^-------------------------------16-14-|
d-----------------------------------------------------------------------------|
a-----------------------------------------------------------------------------|
e-----------------------------------------------------------------------------|

---------|
---------|
12-12-9~~|
---------|
---------|
---------|


intro x2
verse x3
fill 1
verse x3
fill 2
chorus x2
verse x3
fill 1
verse x3
fill 3
chorus x2
solo
verse x3
fill 3
Related for Noah Haines - Over My Head tab
Advertisement will be closed in 10 seconds