Guitaretab - guitar tabs
Song name
# A B C D E F G H I J K L M N O P Q R S T U V W X Y Z

Misc Your Songs - Joe Douglas - Just The Bends tab

Joe Douglas  Just the bends.

Hey there! this is kinda a solo project of mine, writing a few songs of mine and a few 
and putting them all together, www.freewebs.com/joe-douglas is my website if you want to 
it out, anyway the strumming on this song is always DOWN UP repeating. Thanks for viewing!

Intro
E|-4-44-xxx/7-77-xxx\2-22-xxx/5-55-xxx-|
B|-6-66-xxx/9-99-xxx\4-44-xxx/7-77-xxx-|
G|-6-66-xxx/9-99-xxx\4-44-xxx/7-77-xxx-| Play 3 Times
D|-6-66-xxx/9-99-xxx\4-44-xxx/7-77-xxx-|
A|-4-44-xxx/7-77-xxx\2-22-xxx/5-55-xxx-|
E|-4-44-xxx/7-77-xxx\2-22-xxx/5-55-xxx-|

E|-6*--7-77\--2*--5-55-|
B|-6*--9-99\--4*--7-77-|
G|-6*--9-99\--4*--7-77-| Play twice
D|-6*--9-99\--4*--7-77-|
A|-4*--7-77\--2*--5-55-|
E|-4*--7-77\--2*--5-55-|

Verse
E|-4-44--3-33-666-555-444-|
B|-6-66--5-55-888-777-666-|
G|-6-66--5-55-888-777-666-| Play 3 times
D|-6-66--5-55-888-777-666-|
A|-4-44--3-33-666-555-444-|
E|-4-44--3-33-666-555-444-|
[ Tab from: http://www.guitaretab.com/m/misc-your-songs/88265.html ]
Chorus
E|-4-44-xxx/7-77-xxx\2-22-xxx/5-55-xxx-|
B|-6-66-xxx/9-99-xxx\4-44-xxx/7-77-xxx-|
G|-6-66-xxx/9-99-xxx\4-44-xxx/7-77-xxx-| Play 4 times
D|-6-66-xxx/9-99-xxx\4-44-xxx/7-77-xxx-|
A|-4-44-xxx/7-77-xxx\2-22-xxx/5-55-xxx-|
E|-4-44-xxx/7-77-xxx\2-22-xxx/5-55-xxx-|

Solo       x2
E|-----------------------|----------3h5^-|
B|-----------------------|------3h5------|
G|---5h7p5h7~---5h7p5h7^-|---3h5---------|
D|-7----------7----------|-5-------------|
A|-----------------------|---------------|
E|-----------------------|---------------|

E|-7p5--------------------3h4----------7^-|
B|----7p5--------------3h4---3h4----------|
G|-------7p5--------3h4---------3h4-------|
D|----------7p5^-3h4---------------3h4----|
A|----------------------------------------|
E|----------------------------------------|


        X3
E|-------------|
B|-------------|
G|-------6-7-6-|
D|-7-6-7-------|
A|-------------|
E|-------------|

Extro
E|-4--7--2--5-|
B|-6--9--4--7-|
G|-6--9--4--7-| Play twice
D|-6--9--4--7-|
A|-4--7--2--5-|
E|-4--7--2--5-|

Song Order:
Intro
Verse
Chorus
Verse
Chorus
Solo
Chorus
Extro

Key:
X  Mute Note
* - Let Ring
~ - Vibrato
h  Hammer-on
p  Pull-off
\ or / - Slide
^ - Bend up
Related for Joe Douglas - Just The Bends tab