Guitaretab - guitar tabs
Song name
# A B C D E F G H I J K L M N O P Q R S T U V W X Y Z

Misc Your Songs - Rock Maniac - Last Time With You tab

          ok i just now made this song up and i know the name is kind of original but 
seems easy enough to play so here it is. its all fingerpickin.
                   (Standard tuning)

    Intro:   x2 (play kinda slow)

      e |--------------0-------------0-------------0-------------0-----|
      B |-------3----------3--3----------3--3----------3--3----------3-|
      G |-----------2-------------2-------------2-------------2--------|
      D |-------0-------------0-------------2-------------2------------|
      A |--------------------------------------------------------------|
      E |--------------------------------------------------------------|

[ Tab from: http://www.guitaretab.com/m/misc-your-songs/94355.html ]
      e |--------------3-------------3-------------0-------------0-----|
      B |-------3----------3--3----------3--3----------3--3----------3-|
      G |-----------2-------------2-------------2-------------2--------|
      D |--------------------------------------------------------------|
      A |-------3-------------3-------------2-------------2------------|
      E |--------------------------------------------------------------|


    Chorus:   (play fast) (might take a minute to get down though)

      e |-------------3-----0-----3----|---------0-----3-----0----|
      B |-------3----------------------|---3----------------------|
      G |----------2-----2-----2-----2-|------2-----2-----2-----2-|
      D |-------0----------------------|---2----------------------|
      A |------------------------------|--------------------------|
      E |------------------------------|--------------------------|

      e |-------------3-----0-----3----|---------0-----3-----0----|
      B |-------3----------------------|---3----------------------|
      G |----------2-----2-----2-----2-|------2-----2-----2-----2-|
      D |------------------------------|--------------------------|
      A |-------3----------------------|---2----------------------|
      E |------------------------------|--------------------------|


  well i hope u like it and this is my first tab so if i messed up n e where or if u 
to add on to it just let me know.
Related for Rock Maniac - Last Time With You tab
×
Best way to learn
"Rock Maniac - Last Time With You"