Song name
# A B C D E F G H I J K L M N O P Q R S T U V W X Y Z

Misc Your Songs - Brandon - Me Having Fun tab

                               Intro
|-------------------------------------------------------------------|
|-------------------------------------------------------------------|
|-------------------------------------------------------------------|
|-------------------------------------------------------------------|
|-00-5-00-7-00-3-00-1---00-5-00-7-00-3-00-9---00-5-00-7-00-3-00-1---|
|-00-5-00-7-00-3-00-1---00-5-00-7-00-3-00-9---00-5-00-7-00-3-00-1---|
pm..   ..   ..   ..     ..   ..   ..   ..     ..   ..   ..   ..  

|-----------------------|
|-----------------------|
|-----------------------|
|-----------------------|      x2
|-00-5-00-7-00-3-00-9---|
|-00-5-00-7-00-3-00-9---|
  ..   ..   ..   ..     

                    Verse
|---------------------------------------------|
|---------------------------------------------|
|---------------------------------------------|    x3
|---------------------------------------------|
|-33-5-3-0-1--0-3--0-5--33-5-3-0-9--0-7--0-5--|
|-33-5-3-0-1--0-3--0-5--33-5-3-0-9--0-7--0-5--|


              Chorus
|-------------------------------|
|-------------------------------|
|-------------------------------|    x2
|-------------------------------|
|-00-3-5-00-5-3-00-3-5-77777777-|
|-00-3-5-00-5-3-00-3-5-77777777-|
pm..     ..     ..


              Verse p.2
|-------------------------------------------------|
|-------------------------------------------------|
|-------------------------------------------------|
|-------------------------------------------------|
|-3-3-3-3-3-3-3-3-5-5-5-5-5-5-5-5-1-1-1-1-1-1-1-1-|
|-3-3-3-3-3-3-3-3-5-5-5-5-5-5-5-5-1-1-1-1-1-1-1-1-|
pm...............................................

|-------------------------------------------------|
|-------------------------------------------------|
|-------------------------------------------------|
|-------------------------------------------------|   x2
|-3-3-3-3-3-3-3-3-5-5-5-5-5-5-5-5-1-1-1-1-1-1-1-1-|
|-3-3-3-3-3-3-3-3-5-5-5-5-5-5-5-5-1-1-1-1-1-1-1-1-|


           Outro
|--------------------------|
|--------------------------|
|--------------------------|
|--------------------------|
|--------------------------|
|6ph^(slowly release bend)-|
Tap to rate this tab
 
# A B C D E F G H I J K L M N O P Q R S T U V W X Y Z